  0
SECTION
  2
HEADER
  9
$ACADVER
  1
AC1014
  9
$ACADMAINTVER
 70
     9
  9
$DWGCODEPAGE
  3
ANSI_1252
  9
$INSBASE
 10
0.0
 20
0.0
 30
0.0
  9
$EXTMIN
 10
134.9563598961467
 20
347.9517554992784
 30
0.0
  9
$EXTMAX
 10
439.7563598961467
 20
473.8322199978445
 30
0.0
  9
$LIMMIN
 10
0.0
 20
0.0
  9
$LIMMAX
 10
420.0
 20
297.0
  9
$ORTHOMODE
 70
     0
  9
$REGENMODE
 70
     1
  9
$FILLMODE
 70
     1
  9
$QTEXTMODE
 70
     0
  9
$MIRRTEXT
 70
     1
  9
$DRAGMODE
 70
     2
  9
$LTSCALE
 40
12.7
  9
$OSMODE
 70
    23
  9
$ATTMODE
 70
     1
  9
$TEXTSIZE
 40
3.5
  9
$TRACEWID
 40
1.0
  9
$TEXTSTYLE
  7
ONSHAPE-STANDARD
  9
$CLAYER
  8
0
  9
$CELTYPE
  6
BYLAYER
  9
$CECOLOR
 62
   256
  9
$CELTSCALE
 40
1.0
  9
$DELOBJ
 70
     1
  9
$DISPSILH
 70
     0
  9
$DIMSCALE
 40
1.0
  9
$DIMASZ
 40
2.5
  9
$DIMEXO
 40
0.625
  9
$DIMDLI
 40
3.75
  9
$DIMRND
 40
0.0
  9
$DIMDLE
 40
0.0
  9
$DIMEXE
 40
1.25
  9
$DIMTP
 40
0.0
  9
$DIMTM
 40
0.0
  9
$DIMTXT
 40
3.5
  9
$DIMCEN
 40
2.5
  9
$DIMTSZ
 40
0.0
  9
$DIMTOL
 70
     0
  9
$DIMLIM
 70
     0
  9
$DIMTIH
 70
     0
  9
$DIMTOH
 70
     0
  9
$DIMSE1
 70
     0
  9
$DIMSE2
 70
     0
  9
$DIMTAD
 70
     1
  9
$DIMZIN
 70
     8
  9
$DIMBLK
  1

  9
$DIMASO
 70
     1
  9
$DIMSHO
 70
     1
  9
$DIMPOST
  1

  9
$DIMAPOST
  1

  9
$DIMALT
 70
     0
  9
$DIMALTD
 70
     3
  9
$DIMALTF
 40
0.03937
  9
$DIMLFAC
 40
1.0
  9
$DIMTOFL
 70
     1
  9
$DIMTVP
 40
0.0
  9
$DIMTIX
 70
     0
  9
$DIMSOXD
 70
     0
  9
$DIMSAH
 70
     0
  9
$DIMBLK1
  1

  9
$DIMBLK2
  1

  9
$DIMSTYLE
  2
ONSHAPE-ISO-25
  9
$DIMCLRD
 70
     7
  9
$DIMCLRE
 70
     7
  9
$DIMCLRT
 70
     7
  9
$DIMTFAC
 40
1.0
  9
$DIMGAP
 40
0.625
  9
$DIMJUST
 70
     0
  9
$DIMSD1
 70
     0
  9
$DIMSD2
 70
     0
  9
$DIMTOLJ
 70
     0
  9
$DIMTZIN
 70
     8
  9
$DIMALTZ
 70
     8
  9
$DIMALTTZ
 70
     0
  9
$DIMFIT
 70
     3
  9
$DIMUPT
 70
     1
  9
$DIMUNIT
 70
     2
  9
$DIMDEC
 70
     2
  9
$DIMTDEC
 70
     2
  9
$DIMALTU
 70
     2
  9
$DIMALTTD
 70
     3
  9
$DIMTXSTY
  7
ONSHAPE-STANDARD-DIMENSION
  9
$DIMAUNIT
 70
     0
  9
$LUNITS
 70
     2
  9
$LUPREC
 70
     4
  9
$SKETCHINC
 40
1.0
  9
$FILLETRAD
 40
10.0
  9
$AUNITS
 70
     0
  9
$AUPREC
 70
     0
  9
$MENU
  1
.
  9
$ELEVATION
 40
0.0
  9
$PELEVATION
 40
0.0
  9
$THICKNESS
 40
0.0
  9
$LIMCHECK
 70
     0
  9
$CHAMFERA
 40
0.0
  9
$CHAMFERB
 40
0.0
  9
$CHAMFERC
 40
0.0
  9
$CHAMFERD
 40
0.0
  9
$SKPOLY
 70
     0
  9
$TDCREATE
 40
2459687.471193959
  9
$TDUPDATE
 40
2459687.471195451
  9
$TDINDWG
 40
0.0
  9
$TDUSRTIMER
 40
0.0
  9
$USRTIMER
 70
     1
  9
$ANGBASE
 50
0.0
  9
$ANGDIR
 70
     0
  9
$PDMODE
 70
    33
  9
$PDSIZE
 40
1.0
  9
$PLINEWID
 40
0.0
  9
$COORDS
 70
     1
  9
$SPLFRAME
 70
     0
  9
$SPLINETYPE
 70
     6
  9
$SPLINESEGS
 70
     8
  9
$ATTDIA
 70
     0
  9
$ATTREQ
 70
     1
  9
$HANDLING
 70
     1
  9
$HANDSEED
  5
3E7
  9
$SURFTAB1
 70
     6
  9
$SURFTAB2
 70
     6
  9
$SURFTYPE
 70
     6
  9
$SURFU
 70
     6
  9
$SURFV
 70
     6
  9
$UCSNAME
  2

  9
$UCSORG
 10
0.0
 20
0.0
 30
0.0
  9
$UCSXDIR
 10
1.0
 20
0.0
 30
0.0
  9
$UCSYDIR
 10
0.0
 20
1.0
 30
0.0
  9
$PUCSNAME
  2

  9
$PUCSORG
 10
0.0
 20
0.0
 30
0.0
  9
$PUCSXDIR
 10
1.0
 20
0.0
 30
0.0
  9
$PUCSYDIR
 10
0.0
 20
1.0
 30
0.0
  9
$USERI1
 70
     0
  9
$USERI2
 70
     0
  9
$USERI3
 70
     0
  9
$USERI4
 70
     0
  9
$USERI5
 70
     0
  9
$USERR1
 40
0.0
  9
$USERR2
 40
0.0
  9
$USERR3
 40
0.0
  9
$USERR4
 40
0.0
  9
$USERR5
 40
0.0
  9
$WORLDVIEW
 70
     1
  9
$SHADEDGE
 70
     3
  9
$SHADEDIF
 70
    70
  9
$TILEMODE
 70
     1
  9
$MAXACTVP
 70
    64
  9
$PINSBASE
 10
0.0
 20
0.0
 30
0.0
  9
$PLIMCHECK
 70
     0
  9
$PEXTMIN
 10
1.000000000000000E+20
 20
1.000000000000000E+20
 30
1.000000000000000E+20
  9
$PEXTMAX
 10
-1.000000000000000E+20
 20
-1.000000000000000E+20
 30
-1.000000000000000E+20
  9
$PLIMMIN
 10
0.0
 20
0.0
  9
$PLIMMAX
 10
420.0
 20
297.0
  9
$UNITMODE
 70
     0
  9
$VISRETAIN
 70
     1
  9
$PLINEGEN
 70
     0
  9
$PSLTSCALE
 70
     1
  9
$TREEDEPTH
 70
  3020
  9
$PICKSTYLE
 70
     1
  9
$CMLSTYLE
  2
STANDARD
  9
$CMLJUST
 70
     0
  9
$CMLSCALE
 40
20.0
  9
$PROXYGRAPHICS
 70
     1
  9
$MEASUREMENT
 70
     1
  0
ENDSEC
  0
SECTION
  2
CLASSES
  0
CLASS
  1
ACDBDICTIONARYWDFLT
  2
AcDbDictionaryWithDefault
  3
ObjectDBX Classes
 90
        0
280
     0
281
     0
  0
CLASS
  1
VISUALSTYLE
  2
AcDbVisualStyle
  3
ObjectDBX Classes
 90
     4095
280
     0
281
     0
  0
CLASS
  1
MATERIAL
  2
AcDbMaterial
  3
ObjectDBX Classes
 90
     1153
280
     0
281
     0
  0
CLASS
  1
SCALE
  2
AcDbScale
  3
ObjectDBX Classes
 90
     1153
280
     0
281
     0
  0
CLASS
  1
TABLESTYLE
  2
AcDbTableStyle
  3
ObjectDBX Classes
 90
     4095
280
     0
281
     0
  0
CLASS
  1
MLEADERSTYLE
  2
AcDbMLeaderStyle
  3
ACDB_MLEADERSTYLE_CLASS
 90
     4095
280
     0
281
     0
  0
CLASS
  1
SUN
  2
AcDbSun
  3
SCENEOE
 90
     1153
280
     0
281
     0
  0
CLASS
  1
DICTIONARYVAR
  2
AcDbDictionaryVar
  3
ObjectDBX Classes
 90
        0
280
     0
281
     0
  0
CLASS
  1
XRECORD
  2
AcDbXrecord
  3
ObjectDBX Classes
 90
        0
280
     0
281
     0
  0
CLASS
  1
LWPOLYLINE
  2
AcDbPolyline
  3
ObjectDBX Classes
 90
        0
280
     0
281
     1
  0
CLASS
  1
HATCH
  2
AcDbHatch
  3
ObjectDBX Classes
 90
        0
280
     0
281
     1
  0
CLASS
  1
ACDBPLACEHOLDER
  2
AcDbPlaceHolder
  3
ObjectDBX Classes
 90
        0
280
     0
281
     0
  0
CLASS
  1
LAYOUT
  2
AcDbLayout
  3
ObjectDBX Classes
 90
        0
280
     0
281
     0
  0
ENDSEC
  0
SECTION
  2
TABLES
  0
TABLE
  2
VPORT
  5
8
102
{ACAD_XDICTIONARY
360
3DC
102
}
330
0
100
AcDbSymbolTable
 70
     1
  0
VPORT
  5
29
330
8
100
AcDbSymbolTableRecord
100
AcDbViewportTableRecord
  2
*ACTIVE
 70
     0
 10
0.0
 20
0.0
 11
1.0
 21
1.0
 12
287.3563598961467
 22
421.1369877485615
 13
0.0
 23
0.0
 14
10.0
 24
10.0
 15
10.0
 25
10.0
 16
0.0
 26
0.0
 36
1.0
 17
0.0
 27
0.0
 37
0.0
 40
107.4982737885374
 41
2.892102254698261
 42
50.0
 43
0.0
 44
0.0
 50
0.0
 51
0.0
 71
     0
 72
   100
 73
     1
 74
     3
 75
     0
 76
     0
 77
     0
 78
     0
  0
ENDTAB
  0
TABLE
  2
LTYPE
  5
5
330
0
100
AcDbSymbolTable
 70
     1
  0
LTYPE
  5
14
330
5
100
AcDbSymbolTableRecord
100
AcDbLinetypeTableRecord
  2
BYBLOCK
 70
     0
  3

 72
    65
 73
     0
 40
0.0
  0
LTYPE
  5
15
330
5
100
AcDbSymbolTableRecord
100
AcDbLinetypeTableRecord
  2
BYLAYER
 70
     0
  3

 72
    65
 73
     0
 40
0.0
  0
LTYPE
  5
16
330
5
100
AcDbSymbolTableRecord
100
AcDbLinetypeTableRecord
  2
CONTINUOUS
 70
     0
  3
Solid line
 72
    65
 73
     0
 40
0.0
  0
ENDTAB
  0
TABLE
  2
LAYER
  5
2
330
0
100
AcDbSymbolTable
 70
     3
  0
LAYER
  5
10
330
2
100
AcDbSymbolTableRecord
100
AcDbLayerTableRecord
  2
0
 70
     0
 62
     7
  6
CONTINUOUS
  0
LAYER
  5
73
330
2
100
AcDbSymbolTableRecord
100
AcDbLayerTableRecord
  2
VISIBLE
 70
     0
 62
     7
  6
CONTINUOUS
  0
LAYER
  5
35E
330
2
100
AcDbSymbolTableRecord
100
AcDbLayerTableRecord
  2
ANNOTATION_TEXT
 70
     0
 62
     7
  6
CONTINUOUS
  0
ENDTAB
  0
TABLE
  2
STYLE
  5
3
330
0
100
AcDbSymbolTable
 70
    31
  0
STYLE
  5
11
330
3
100
AcDbSymbolTableRecord
100
AcDbTextStyleTableRecord
  2
STANDARD
 70
     0
 40
0.0
 41
1.0
 50
0.0
 71
     0
 42
3.5
  3
txt
  4

  0
STYLE
  5
70
330
3
100
AcDbSymbolTableRecord
100
AcDbTextStyleTableRecord
  2
ONSHAPE-STANDARD
 70
     0
 40
0.0
 41
1.0
 50
0.0
 71
     0
 42
3.5
  3
NotoSans-Regular.ttf
  4

1001
ACAD
1000
Noto Sans
1071
        0
  0
STYLE
  5
72
330
3
100
AcDbSymbolTableRecord
100
AcDbTextStyleTableRecord
  2
ONSHAPE-STANDARD-DIMENSION
 70
     0
 40
0.0
 41
1.0
 50
0.0
 71
     0
 42
3.5
  3

  4

1001
ACAD
1000
Noto Sans
1071
        0
  0
STYLE
  5
361
330
3
100
AcDbSymbolTableRecord
100
AcDbTextStyleTableRecord
  2
ONSHAPE-STANDARD-VIEW-LABE
 70
     0
 40
3.5
 41
1.0
 50
0.0
 71
     0
 42
3.5
  3
NotoSans-Regular.ttf
  4

1001
ACAD
1000
Noto Sans
1071
        0
  0
STYLE
  5
36A
330
3
100
AcDbSymbolTableRecord
100
AcDbTextStyleTableRecord
  2
ONSHAPE-STANDARD-BOLD
 70
     0
 40
0.0
 41
1.0
 50
0.0
 71
     0
 42
3.5
  3
NotoSans-Bold.ttf
  4

1001
ACAD
1000
Noto Sans
1071
 33554432
  0
STYLE
  5
36B
330
3
100
AcDbSymbolTableRecord
100
AcDbTextStyleTableRecord
  2
ONSHAPE-STANDARD-FIELDS
 70
     0
 40
0.0
 41
1.0
 50
0.0
 71
     0
 42
3.5
  3

  4

1001
ACAD
1000
Noto Sans
1071
        0
  0
STYLE
  5
36C
330
3
100
AcDbSymbolTableRecord
100
AcDbTextStyleTableRecord
  2
ONSHAPE-STANDARD-TCFIELDS
 70
     0
 40
0.0
 41
1.0
 50
0.0
 71
     0
 42
3.5
  3
NotoSansTC-Regular.otf
  4

1001
ACAD
1000
Noto Sans TC
1071
        0
  0
STYLE
  5
36D
330
3
100
AcDbSymbolTableRecord
100
AcDbTextStyleTableRecord
  2
ONSHAPE-STANDARD-SCFIELDS
 70
     0
 40
0.0
 41
1.0
 50
0.0
 71
     0
 42
3.5
  3
NotoSansSC-Regular.otf
  4

1001
ACAD
1000
Noto Sans SC
1071
        0
  0
STYLE
  5
36E
330
3
100
AcDbSymbolTableRecord
100
AcDbTextStyleTableRecord
  2
ONSHAPE-STANDARD-KOREANFIE
 70
     0
 40
0.0
 41
1.0
 50
0.0
 71
     0
 42
3.5
  3
NotoSansKR-Regular.otf
  4

1001
ACAD
1000
Noto Sans KR
1071
        0
  0
STYLE
  5
36F
330
3
100
AcDbSymbolTableRecord
100
AcDbTextStyleTableRecord
  2
ONSHAPE-STANDARD-JAPANESEF
 70
     0
 40
0.0
 41
1.0
 50
0.0
 71
     0
 42
3.5
  3
NotoSansJP-Regular.otf
  4

1001
ACAD
1000
Noto Sans JP
1071
        0
  0
STYLE
  5
371
330
3
100
AcDbSymbolTableRecord
100
AcDbTextStyleTableRecord
  2
TTFSTYLE
 70
     0
 40
0.0
 41
1.0
 50
0.0
 71
     0
 42
3.5
  3
Verdana.ttf
  4

1001
ACAD
1000
Verdana
1071
       34
  0
STYLE
  5
372
330
3
100
AcDbSymbolTableRecord
100
AcDbTextStyleTableRecord
  2
ONSHAPE-STANDARD-GTOLERANC
 70
     0
 40
0.0
 41
1.0
 50
0.0
 71
     0
 42
3.5
  3

  4

1001
ACAD
1000
Noto Sans
1071
        0
  0
STYLE
  5
373
330
3
100
AcDbSymbolTableRecord
100
AcDbTextStyleTableRecord
  2
ONSHAPE-STANDARD-TABLE-DAT
 70
     0
 40
0.0
 41
1.0
 50
0.0
 71
     0
 42
3.5
  3
NotoSans-Regular.ttf
  4

1001
ACAD
1000
Noto Sans
1071
        0
  0
STYLE
  5
374
330
3
100
AcDbSymbolTableRecord
100
AcDbTextStyleTableRecord
  2
ONSHAPE-STANDARD-TABLE-TIT
 70
     0
 40
0.0
 41
1.0
 50
0.0
 71
     0
 42
3.5
  3
NotoSans-Bold.ttf
  4

1001
ACAD
1000
Noto Sans
1071
 33554432
  0
STYLE
  5
375
330
3
100
AcDbSymbolTableRecord
100
AcDbTextStyleTableRecord
  2
ONSHAPE-STANDARD-TABLE-HEA
 70
     0
 40
0.0
 41
1.0
 50
0.0
 71
     0
 42
3.5
  3
NotoSans-Bold.ttf
  4

1001
ACAD
1000
Noto Sans
1071
 33554432
  0
STYLE
  5
376
330
3
100
AcDbSymbolTableRecord
100
AcDbTextStyleTableRecord
  2
ONSHAPE-STANDARD-BOMTABLE-
 70
     0
 40
0.0
 41
1.0
 50
0.0
 71
     0
 42
3.5
  3
NotoSans-Regular.ttf
  4

1001
ACAD
1000
Noto Sans
1071
        0
  0
STYLE
  5
377
330
3
100
AcDbSymbolTableRecord
100
AcDbTextStyleTableRecord
  2
ONSHAPE-STANDARD-BOMTABLE0
 70
     0
 40
0.0
 41
1.0
 50
0.0
 71
     0
 42
3.5
  3
NotoSans-Bold.ttf
  4

1001
ACAD
1000
Noto Sans
1071
 33554432
  0
STYLE
  5
378
330
3
100
AcDbSymbolTableRecord
100
AcDbTextStyleTableRecord
  2
ONSHAPE-STANDARD-BOMTABLE1
 70
     0
 40
0.0
 41
1.0
 50
0.0
 71
     0
 42
3.5
  3
NotoSans-Bold.ttf
  4

1001
ACAD
1000
Noto Sans
1071
 33554432
  0
STYLE
  5
379
330
3
100
AcDbSymbolTableRecord
100
AcDbTextStyleTableRecord
  2
ONSHAPE-STANDARD-NOTESTYLE
 70
     0
 40
3.5
 41
1.0
 50
0.0
 71
     0
 42
3.5
  3
Noto Sans
  4

1001
ACAD
1000
Noto Sans
1071
        0
  0
STYLE
  5
37A
330
3
100
AcDbSymbolTableRecord
100
AcDbTextStyleTableRecord
  2
ONSHAPE-STANDARD-HOLE-CALL
 70
     0
 40
3.5
 41
1.0
 50
0.0
 71
     0
 42
3.5
  3
Noto Sans
  4

1001
ACAD
1000
Noto Sans
1071
        0
  0
STYLE
  5
37B
330
3
100
AcDbSymbolTableRecord
100
AcDbTextStyleTableRecord
  2
ONSHAPE-STANDARD-HOLETABLE
 70
     0
 40
0.0
 41
1.0
 50
0.0
 71
     0
 42
3.5
  3
NotoSans-Regular.ttf
  4

1001
ACAD
1000
Noto Sans
1071
        0
  0
STYLE
  5
37C
330
3
100
AcDbSymbolTableRecord
100
AcDbTextStyleTableRecord
  2
ONSHAPE-STANDARD-HOLETABL0
 70
     0
 40
0.0
 41
1.0
 50
0.0
 71
     0
 42
3.5
  3
NotoSans-Bold.ttf
  4

1001
ACAD
1000
Noto Sans
1071
 33554432
  0
STYLE
  5
37D
330
3
100
AcDbSymbolTableRecord
100
AcDbTextStyleTableRecord
  2
ONSHAPE-STANDARD-HOLETABL1
 70
     0
 40
0.0
 41
1.0
 50
0.0
 71
     0
 42
3.5
  3
NotoSans-Bold.ttf
  4

1001
ACAD
1000
Noto Sans
1071
 33554432
  0
STYLE
  5
37E
330
3
100
AcDbSymbolTableRecord
100
AcDbTextStyleTableRecord
  2
ONSHAPE-STANDARD-HOLE-TAG
 70
     0
 40
3.5
 41
1.0
 50
0.0
 71
     0
 42
3.5
  3
Noto Sans
  4

1001
ACAD
1000
Noto Sans
1071
        0
  0
STYLE
  5
37F
330
3
100
AcDbSymbolTableRecord
100
AcDbTextStyleTableRecord
  2
ONSHAPE-STANDARD-REVISIONT
 70
     0
 40
0.0
 41
1.0
 50
0.0
 71
     0
 42
3.5
  3
NotoSans-Regular.ttf
  4

1001
ACAD
1000
Noto Sans
1071
        0
  0
STYLE
  5
380
330
3
100
AcDbSymbolTableRecord
100
AcDbTextStyleTableRecord
  2
ONSHAPE-STANDARD-REVISION0
 70
     0
 40
0.0
 41
1.0
 50
0.0
 71
     0
 42
3.5
  3
NotoSans-Bold.ttf
  4

1001
ACAD
1000
Noto Sans
1071
 33554432
  0
STYLE
  5
381
330
3
100
AcDbSymbolTableRecord
100
AcDbTextStyleTableRecord
  2
ONSHAPE-STANDARD-REVISION1
 70
     0
 40
0.0
 41
1.0
 50
0.0
 71
     0
 42
3.5
  3
NotoSans-Bold.ttf
  4

1001
ACAD
1000
Noto Sans
1071
 33554432
  0
STYLE
  5
382
330
3
100
AcDbSymbolTableRecord
100
AcDbTextStyleTableRecord
  2
ONSHAPE-STANDARD-REVISION-
 70
     0
 40
3.5
 41
1.0
 50
0.0
 71
     0
 42
3.5
  3
Noto Sans
  4

1001
ACAD
1000
Noto Sans
1071
        0
  0
STYLE
  5
383
330
3
100
AcDbSymbolTableRecord
100
AcDbTextStyleTableRecord
  2
ONSHAPE-STANDARD-CUTLISTTA
 70
     0
 40
0.0
 41
1.0
 50
0.0
 71
     0
 42
3.5
  3
NotoSans-Regular.ttf
  4

1001
ACAD
1000
Noto Sans
1071
        0
  0
STYLE
  5
384
330
3
100
AcDbSymbolTableRecord
100
AcDbTextStyleTableRecord
  2
ONSHAPE-STANDARD-CUTLISTT0
 70
     0
 40
0.0
 41
1.0
 50
0.0
 71
     0
 42
3.5
  3
NotoSans-Bold.ttf
  4

1001
ACAD
1000
Noto Sans
1071
 33554432
  0
STYLE
  5
385
330
3
100
AcDbSymbolTableRecord
100
AcDbTextStyleTableRecord
  2
ONSHAPE-STANDARD-CUTLISTT1
 70
     0
 40
0.0
 41
1.0
 50
0.0
 71
     0
 42
3.5
  3
NotoSans-Bold.ttf
  4

1001
ACAD
1000
Noto Sans
1071
 33554432
  0
ENDTAB
  0
TABLE
  2
VIEW
  5
6
330
0
100
AcDbSymbolTable
 70
     0
  0
ENDTAB
  0
TABLE
  2
UCS
  5
7
330
0
100
AcDbSymbolTable
 70
     0
  0
ENDTAB
  0
TABLE
  2
APPID
  5
9
330
0
100
AcDbSymbolTable
 70
     2
  0
APPID
  5
12
330
9
100
AcDbSymbolTableRecord
100
AcDbRegAppTableRecord
  2
ACAD
 70
     0
  0
APPID
  5
3E6
330
9
100
AcDbSymbolTableRecord
100
AcDbRegAppTableRecord
  2
ACAD_MLEADERVER
 70
     0
  0
ENDTAB
  0
TABLE
  2
DIMSTYLE
  5
A
330
0
100
AcDbSymbolTable
 70
    18
  0
DIMSTYLE
105
27
330
A
100
AcDbSymbolTableRecord
100
AcDbDimStyleTableRecord
  2
ISO-25
 70
     0
  3

  4

  5

  6

  7

 40
1.0
 41
2.5
 42
0.625
 43
3.75
 44
1.25
 45
0.0
 46
0.0
 47
0.0
 48
0.0
140
2.5
141
2.5
142
0.0
143
0.03937007874016
144
1.0
145
0.0
146
1.0
147
0.625
 71
     0
 72
     0
 73
     0
 74
     0
 75
     0
 76
     0
 77
     1
 78
     8
170
     0
171
     3
172
     1
173
     0
174
     0
175
     0
176
     0
177
     0
178
     0
270
     2
271
     2
272
     2
273
     2
274
     3
340
11
275
     0
280
     0
281
     0
282
     0
283
     0
284
     8
285
     0
286
     0
287
     3
288
     0
  0
DIMSTYLE
105
71
330
A
100
AcDbSymbolTableRecord
100
AcDbDimStyleTableRecord
  2
ONSHAPE-ISO-25
 70
     0
  3

  4

  5

  6

  7

 40
1.0
 41
2.5
 42
0.625
 43
3.75
 44
1.25
 45
0.0
 46
0.0
 47
0.0
 48
0.0
140
3.5
141
2.5
142
0.0
143
0.03937
144
1.0
145
0.0
146
1.0
147
0.625
 71
     0
 72
     0
 73
     0
 74
     0
 75
     0
 76
     0
 77
     1
 78
     8
170
     0
171
     3
172
     1
173
     0
174
     0
175
     0
176
     7
177
     7
178
     7
179
     1
270
     2
271
     2
272
     2
273
     2
274
     3
340
72
275
     0
280
     0
281
     0
282
     0
283
     0
284
     8
285
     8
286
     0
287
     3
288
     1
  0
DIMSTYLE
105
388
330
A
100
AcDbSymbolTableRecord
100
AcDbDimStyleTableRecord
  2
ISO
 70
     0
  3

  4
"
  5

  6

  7

 40
1.0
 41
3.5
 42
1.0
 43
10.0
 44
1.0
 45
0.0
 46
0.0
 47
0.1
 48
0.1
140
3.5
141
0.0
142
0.0
143
0.03937
144
1.0
145
0.0
146
0.71
147
1.5
 71
     0
 72
     0
 73
     0
 74
     0
 75
     0
 76
     0
 77
     1
 78
     8
170
     0
171
     3
172
     1
173
     0
174
     0
175
     0
176
     7
177
     7
178
     7
270
     2
271
     2
272
     3
273
     2
274
     3
340
11
275
     0
280
     0
281
     0
282
     0
283
     0
284
     8
285
     8
286
     0
287
     3
288
     1
  0
DIMSTYLE
105
389
330
A
100
AcDbSymbolTableRecord
100
AcDbDimStyleTableRecord
  2
ISO$3
 70
     0
  3

  4
"
  5

  6

  7

 40
1.0
 41
3.5
 42
1.0
 43
10.0
 44
1.0
 45
0.0
 46
0.0
 47
0.1
 48
0.1
140
3.5
141
0.0
142
0.0
143
0.03937
144
1.0
145
0.0
146
0.71
147
1.5
 71
     0
 72
     0
 73
     0
 74
     1
 75
     0
 76
     0
 77
     1
 78
     8
170
     0
171
     3
172
     0
173
     0
174
     0
175
     0
176
     7
177
     7
178
     7
270
     2
271
     2
272
     3
273
     2
274
     3
340
11
275
     0
280
     0
281
     0
282
     0
283
     0
284
     8
285
     8
286
     0
288
     1
  0
DIMSTYLE
105
38A
330
A
100
AcDbSymbolTableRecord
100
AcDbDimStyleTableRecord
  2
ISO$4
 70
     0
  3

  4
"
  5

  6

  7

 40
1.0
 41
3.5
 42
1.0
 43
10.0
 44
1.0
 45
0.0
 46
0.0
 47
0.1
 48
0.1
140
3.5
141
0.0
142
0.0
143
0.03937
144
1.0
145
0.0
146
0.71
147
1.5
 71
     0
 72
     0
 73
     0
 74
     0
 75
     0
 76
     0
 77
     1
 78
     8
170
     0
171
     3
172
     1
173
     0
174
     0
175
     0
176
     7
177
     7
178
     7
270
     2
271
     2
272
     3
273
     2
274
     3
340
11
275
     0
280
     0
281
     0
282
     0
283
     0
284
     8
285
     8
286
     0
287
     3
288
     1
  0
DIMSTYLE
105
38B
330
A
100
AcDbSymbolTableRecord
100
AcDbDimStyleTableRecord
  2
ISO$6
 70
     0
  3

  4
"
  5

  6

  7

 40
1.0
 41
0.5
 42
1.0
 43
10.0
 44
1.0
 45
0.0
 46
0.0
 47
0.1
 48
0.1
140
3.5
141
0.0
142
0.0
143
0.03937
144
1.0
145
0.0
146
0.71
147
1.5
 71
     0
 72
     0
 73
     0
 74
     0
 75
     0
 76
     0
 77
     0
 78
     8
170
     0
171
     3
172
     1
173
     0
174
     0
175
     0
176
     7
177
     7
178
     7
270
     2
271
     2
272
     3
273
     2
274
     3
340
11
275
     0
280
     0
281
     0
282
     0
283
     0
284
     8
285
     8
286
     0
287
     3
288
     1
  0
DIMSTYLE
105
38C
330
A
100
AcDbSymbolTableRecord
100
AcDbDimStyleTableRecord
  2
ISO$7
 70
     0
  3

  4
"
  5

  6

  7

 40
1.0
 41
3.5
 42
1.0
 43
10.0
 44
1.0
 45
0.0
 46
0.0
 47
0.1
 48
0.1
140
3.5
141
0.0
142
0.0
143
0.03937
144
1.0
145
0.0
146
0.71
147
1.5
 71
     0
 72
     0
 73
     0
 74
     0
 75
     0
 76
     0
 77
     1
 78
     8
170
     0
171
     3
172
     1
173
     0
174
     0
175
     0
176
     7
177
     7
178
     7
270
     2
271
     2
272
     3
273
     2
274
     3
340
11
275
     0
280
     0
281
     0
282
     0
283
     0
284
     8
285
     8
286
     0
287
     3
288
     1
  0
DIMSTYLE
105
38D
330
A
100
AcDbSymbolTableRecord
100
AcDbDimStyleTableRecord
  2
ISO$SF
 70
     0
  3

  4
"
  5

  6

  7

 40
1.0
 41
3.5
 42
1.0
 43
10.0
 44
1.0
 45
0.0
 46
0.0
 47
0.1
 48
0.1
140
3.5
141
0.0
142
0.0
143
0.03937
144
1.0
145
0.0
146
0.71
147
1.5
 71
     0
 72
     0
 73
     0
 74
     0
 75
     1
 76
     1
 77
     1
 78
     8
170
     0
171
     3
172
     1
173
     0
174
     0
175
     0
176
     7
177
     7
178
     7
270
     2
271
     2
272
     3
273
     2
274
     3
340
11
275
     0
280
     0
281
     0
282
     0
283
     0
284
     8
285
     8
286
     0
287
     3
288
     1
  0
DIMSTYLE
105
38E
330
A
100
AcDbSymbolTableRecord
100
AcDbDimStyleTableRecord
  2
ISO$SH
 70
     0
  3

  4
"
  5

  6

  7

 40
1.0
 41
3.5
 42
1.0
 43
10.0
 44
1.0
 45
0.0
 46
0.0
 47
0.1
 48
0.1
140
3.5
141
0.0
142
0.0
143
0.03937
144
2.0
145
0.0
146
0.71
147
1.5
 71
     0
 72
     0
 73
     0
 74
     0
 75
     1
 76
     1
 77
     1
 78
     8
170
     0
171
     3
172
     1
173
     1
174
     0
175
     0
176
     7
177
     7
178
     7
270
     2
271
     2
272
     3
273
     2
274
     3
340
11
275
     0
280
     0
281
     0
282
     0
283
     0
284
     8
285
     8
286
     0
287
     3
288
     1
  0
DIMSTYLE
105
391
330
A
100
AcDbSymbolTableRecord
100
AcDbDimStyleTableRecord
  2
ONSHAPE-ISO-25$0
 70
     0
  3

  4

  5

  6

  7

 40
1.0
 41
2.5
 42
0.625
 43
3.75
 44
1.25
 45
0.0
 46
0.0
 47
0.0
 48
0.0
140
3.5
141
2.5
142
0.0
143
0.03937
144
1.0
145
0.0
146
1.0
147
0.625
 71
     0
 72
     0
 73
     0
 74
     0
 75
     0
 76
     0
 77
     1
 78
     8
170
     0
171
     3
172
     1
173
     0
174
     0
175
     0
176
     7
177
     7
178
     7
179
     1
270
     2
271
     2
272
     2
273
     2
274
     3
340
72
275
     0
280
     0
281
     0
282
     0
283
     0
284
     8
285
     8
286
     0
287
     3
288
     1
  0
DIMSTYLE
105
392
330
A
100
AcDbSymbolTableRecord
100
AcDbDimStyleTableRecord
  2
ONSHAPE-ISO-25$2
 70
     0
  3

  4

  5

  6

  7

 40
1.0
 41
2.5
 42
0.625
 43
3.75
 44
1.25
 45
0.0
 46
0.0
 47
0.0
 48
0.0
140
3.5
141
2.5
142
0.0
143
0.03937
144
1.0
145
0.0
146
1.0
147
0.625
 71
     0
 72
     0
 73
     0
 74
     0
 75
     0
 76
     0
 77
     1
 78
     8
170
     0
171
     3
172
     1
173
     0
174
     0
175
     0
176
     7
177
     7
178
     7
179
     1
270
     2
271
     2
272
     2
273
     2
274
     3
340
72
275
     0
280
     0
281
     0
282
     0
283
     0
284
     8
285
     8
286
     0
287
     3
288
     1
  0
DIMSTYLE
105
393
330
A
100
AcDbSymbolTableRecord
100
AcDbDimStyleTableRecord
  2
ONSHAPE-ISO-25$3
 70
     0
  3

  4

  5

  6

  7

 40
1.0
 41
2.5
 42
0.625
 43
3.75
 44
1.25
 45
0.0
 46
0.0
 47
0.0
 48
0.0
140
3.5
141
0.0
142
0.0
143
0.03937
144
1.0
145
0.0
146
1.0
147
0.625
 71
     0
 72
     0
 73
     0
 74
     0
 75
     0
 76
     0
 77
     1
 78
     8
170
     0
171
     3
172
     1
173
     0
174
     0
175
     0
176
     7
177
     7
178
     7
179
     1
270
     2
271
     2
272
     2
273
     2
274
     3
340
72
275
     0
280
     0
281
     0
282
     0
283
     0
284
     8
285
     8
286
     0
287
     3
288
     1
  0
DIMSTYLE
105
394
330
A
100
AcDbSymbolTableRecord
100
AcDbDimStyleTableRecord
  2
ONSHAPE-ISO-25$4
 70
     0
  3

  4

  5

  6

  7

 40
1.0
 41
2.5
 42
0.625
 43
3.75
 44
1.25
 45
0.0
 46
0.0
 47
0.0
 48
0.0
140
3.5
141
0.0
142
0.0
143
0.03937
144
1.0
145
0.0
146
1.0
147
0.625
 71
     0
 72
     0
 73
     0
 74
     0
 75
     0
 76
     0
 77
     1
 78
     8
170
     0
171
     3
172
     1
173
     0
174
     0
175
     0
176
     7
177
     7
178
     7
179
     1
270
     2
271
     2
272
     2
273
     2
274
     3
340
72
275
     0
280
     0
281
     0
282
     0
283
     0
284
     8
285
     8
286
     0
287
     3
288
     1
  0
DIMSTYLE
105
395
330
A
100
AcDbSymbolTableRecord
100
AcDbDimStyleTableRecord
  2
ONSHAPE-ISO-25$6
 70
     0
  3

  4

  5

  6

  7

 40
1.0
 41
0.5
 42
0.625
 43
3.75
 44
1.25
 45
0.0
 46
0.0
 47
0.0
 48
0.0
140
3.5
141
2.5
142
0.0
143
0.03937
144
1.0
145
0.0
146
1.0
147
0.625
 71
     0
 72
     0
 73
     0
 74
     0
 75
     0
 76
     0
 77
     1
 78
     8
170
     0
171
     3
172
     1
173
     0
174
     0
175
     0
176
     7
177
     7
178
     7
179
     1
270
     2
271
     2
272
     2
273
     2
274
     3
340
72
275
     0
280
     0
281
     0
282
     0
283
     0
284
     8
285
     8
286
     0
287
     3
288
     1
  0
DIMSTYLE
105
396
330
A
100
AcDbSymbolTableRecord
100
AcDbDimStyleTableRecord
  2
ONSHAPE-ISO-25$7
 70
     0
  3

  4

  5

  6

  7

 40
1.0
 41
2.5
 42
0.625
 43
3.75
 44
1.25
 45
0.0
 46
0.0
 47
0.0
 48
0.0
140
3.5
141
2.5
142
0.0
143
0.03937
144
1.0
145
0.0
146
1.0
147
0.625
 71
     0
 72
     0
 73
     0
 74
     0
 75
     0
 76
     0
 77
     1
 78
     8
170
     0
171
     3
172
     1
173
     0
174
     0
175
     0
176
     7
177
     7
178
     7
179
     1
270
     2
271
     2
272
     2
273
     2
274
     3
340
72
275
     0
280
     0
281
     0
282
     0
283
     0
284
     8
285
     8
286
     0
287
     3
288
     1
  0
DIMSTYLE
105
397
330
A
100
AcDbSymbolTableRecord
100
AcDbDimStyleTableRecord
  2
ONSHAPE-STANDARD-GTOLERANC
 70
     0
  3

  4

  5

  6

  7

 40
1.0
 41
2.5
 42
0.625
 43
3.75
 44
1.25
 45
0.0
 46
0.0
 47
0.0
 48
0.0
140
3.5
141
2.5
142
0.0
143
0.03937
144
1.0
145
0.0
146
1.0
147
0.625
 71
     0
 72
     0
 73
     0
 74
     0
 75
     0
 76
     0
 77
     1
 78
     8
170
     0
171
     3
172
     1
173
     0
174
     0
175
     0
176
     7
177
     7
178
     7
179
     1
270
     2
271
     2
272
     2
273
     2
274
     3
340
372
275
     0
280
     0
281
     0
282
     0
283
     0
284
     8
285
     8
286
     0
287
     3
288
     1
  0
DIMSTYLE
105
399
330
A
100
AcDbSymbolTableRecord
100
AcDbDimStyleTableRecord
  2
ONSHAPE-ORDINATESTYLE
 70
     0
  3

  4

  5

  6

  7

 40
1.0
 41
2.5
 42
0.625
 43
3.75
 44
1.25
 45
0.0
 46
0.0
 47
0.0
 48
0.0
140
3.5
141
2.5
142
0.0
143
0.03937
144
1.0
145
0.0
146
1.0
147
0.625
 71
     0
 72
     0
 73
     0
 74
     0
 75
     0
 76
     0
 77
     1
 78
     8
170
     0
171
     3
172
     1
173
     0
174
     0
175
     0
176
     7
177
     7
178
     7
179
     1
270
     2
271
     2
272
     2
273
     2
274
     3
340
72
275
     0
280
     0
281
     0
282
     0
283
     0
284
     8
285
     8
286
     0
287
     3
288
     1
  0
DIMSTYLE
105
39A
330
A
100
AcDbSymbolTableRecord
100
AcDbDimStyleTableRecord
  2
ONSHAPE-CHAMFERDIMSTYLE
 70
     0
  3

  4

  5

  6

  7

 40
1.0
 41
2.5
 42
0.625
 43
3.75
 44
1.25
 45
0.0
 46
0.0
 47
0.0
 48
0.0
140
3.5
141
2.5
142
0.0
143
0.03937
144
1.0
145
0.0
146
1.0
147
0.625
 71
     0
 72
     0
 73
     0
 74
     0
 75
     0
 76
     0
 77
     1
 78
     8
170
     0
171
     3
172
     1
173
     0
174
     0
175
     0
176
     7
177
     7
178
     7
179
     1
270
     2
271
     2
272
     2
273
     2
274
     3
340
72
275
     0
280
     0
281
     0
282
     0
283
     0
284
     8
285
     8
286
     0
287
     3
288
     1
  0
ENDTAB
  0
TABLE
  2
BLOCK_RECORD
  5
1
330
0
100
AcDbSymbolTable
 70
     0
  0
BLOCK_RECORD
  5
1F
330
1
100
AcDbSymbolTableRecord
100
AcDbBlockTableRecord
  2
*MODEL_SPACE
  0
BLOCK_RECORD
  5
1B
330
1
100
AcDbSymbolTableRecord
100
AcDbBlockTableRecord
  2
*PAPER_SPACE
  0
ENDTAB
  0
ENDSEC
  0
SECTION
  2
BLOCKS
  0
BLOCK
  5
20
330
1F
100
AcDbEntity
  8
0
100
AcDbBlockBegin
  2
*MODEL_SPACE
 70
     0
 10
0.0
 20
0.0
 30
0.0
  3
*MODEL_SPACE
  1

  0
ENDBLK
  5
21
330
1F
100
AcDbEntity
  8
0
100
AcDbBlockEnd
  0
BLOCK
  5
1C
330
1B
100
AcDbEntity
 67
     1
  8
0
100
AcDbBlockBegin
  2
*PAPER_SPACE
 70
     0
 10
0.0
 20
0.0
 30
0.0
  3
*PAPER_SPACE
  1

  0
ENDBLK
  5
1D
330
1B
100
AcDbEntity
 67
     1
  8
0
100
AcDbBlockEnd
  0
ENDSEC
  0
SECTION
  2
ENTITIES
  0
ARC
  5
75
330
1F
100
AcDbEntity
  8
VISIBLE
100
AcDbCircle
 10
164.0063598961467
 20
371.6073874365493
 30
0.0
 40
2.0
100
AcDbArc
 50
90.0
 51
150.0000000000003
  0
LINE
  5
76
330
1F
100
AcDbEntity
  8
VISIBLE
100
AcDbLine
 10
162.2743090885779
 20
372.6073874365493
 30
0.0
 11
160.3834869569819
 21
369.3323874365493
 31
0.0
  0
ARC
  5
77
330
1F
100
AcDbEntity
  8
VISIBLE
100
AcDbCircle
 10
158.6514361494131
 20
370.3323874365493
 30
0.0
 40
2.0
100
AcDbArc
 50
306.8805558032827
 51
330.000000000002
  0
ARC
  5
78
330
1F
100
AcDbEntity
  8
VISIBLE
100
AcDbCircle
 10
159.5516593577676
 20
369.1325548752561
 30
0.0
 40
0.5
100
AcDbArc
 50
180.0
 51
306.8805558032814
  0
LINE
  5
79
330
1F
100
AcDbEntity
  8
VISIBLE
100
AcDbLine
 10
159.0516593577675
 20
369.1325548752561
 30
0.0
 11
159.0516593577675
 21
371.3323874365493
 31
0.0
  0
ARC
  5
7A
330
1F
100
AcDbEntity
  8
VISIBLE
100
AcDbCircle
 10
157.8516593577676
 20
371.3323874365493
 30
0.0
 40
1.2
100
AcDbArc
 50
0.0
 51
180.0
  0
LINE
  5
7B
330
1F
100
AcDbEntity
  8
VISIBLE
100
AcDbLine
 10
156.6516593577676
 20
369.1325548752558
 30
0.0
 11
156.6516593577676
 21
371.3323874365493
 31
0.0
  0
ARC
  5
7C
330
1F
100
AcDbEntity
  8
VISIBLE
100
AcDbCircle
 10
156.1516593577675
 20
369.1325548752558
 30
0.0
 40
0.5
100
AcDbArc
 50
233.1194441967068
 51
0.0
  0
ARC
  5
7D
330
1F
100
AcDbEntity
  8
VISIBLE
100
AcDbCircle
 10
157.051882566122
 20
370.3323874365493
 30
0.0
 40
2.0
100
AcDbArc
 50
209.9999999999997
 51
233.1194441967196
  0
LINE
  5
7E
330
1F
100
AcDbEntity
  8
VISIBLE
100
AcDbLine
 10
153.4290096269571
 20
372.6073874365493
 30
0.0
 11
155.3198317585531
 21
369.3323874365493
 31
0.0
  0
ARC
  5
7F
330
1F
100
AcDbEntity
  8
VISIBLE
100
AcDbCircle
 10
151.6969588193882
 20
371.6073874365493
 30
0.0
 40
2.00000000000004
100
AcDbArc
 50
29.99999999999932
 51
90.0
  0
LINE
  5
80
330
1F
100
AcDbEntity
  8
VISIBLE
100
AcDbLine
 10
137.9563598961466
 20
373.6073874365493
 30
0.0
 11
151.6969588193882
 21
373.6073874365493
 31
0.0
  0
ARC
  5
81
330
1F
100
AcDbEntity
  8
VISIBLE
100
AcDbCircle
 10
137.9563598961467
 20
376.6073874365493
 30
0.0
 40
3.0
100
AcDbArc
 50
180.0
 51
269.9999999999989
  0
LINE
  5
82
330
1F
100
AcDbEntity
  8
VISIBLE
100
AcDbLine
 10
134.9563598961467
 20
465.8573874365493
 30
0.0
 11
134.9563598961467
 21
376.6073874365493
 31
0.0
  0
ARC
  5
83
330
1F
100
AcDbEntity
  8
VISIBLE
100
AcDbCircle
 10
137.9563598961467
 20
465.8573874365493
 30
0.0
 40
3.0
100
AcDbArc
 50
90.0
 51
180.0
  0
LINE
  5
84
330
1F
100
AcDbEntity
  8
VISIBLE
100
AcDbLine
 10
168.8469529185274
 20
468.8573874365475
 30
0.0
 11
137.9563598961467
 21
468.8573874365468
 31
0.0
  0
ARC
  5
85
330
1F
100
AcDbEntity
  8
VISIBLE
100
AcDbCircle
 10
168.8469529185274
 20
470.8573874365475
 30
0.0
 40
2.0
100
AcDbArc
 50
270.0
 51
329.9999999999981
  0
LINE
  5
86
330
1F
100
AcDbEntity
  8
VISIBLE
100
AcDbLine
 10
172.4698258576933
 20
473.1323874365493
 30
0.0
 11
170.5790037260962
 21
469.8573874365475
 31
0.0
  0
ARC
  5
87
330
1F
100
AcDbEntity
  8
VISIBLE
100
AcDbCircle
 10
174.2018766652622
 20
472.1323874365493
 30
0.0
 40
2.0
100
AcDbArc
 50
126.8805558032781
 51
149.9999999999984
  0
ARC
  5
88
330
1F
100
AcDbEntity
  8
VISIBLE
100
AcDbCircle
 10
173.3016534569077
 20
473.3322199978427
 30
0.0
 40
0.5
100
AcDbArc
 50
0.0
 51
126.8805558032749
  0
LINE
  5
89
330
1F
100
AcDbEntity
  8
VISIBLE
100
AcDbLine
 10
173.8016534569077
 20
473.3322199978427
 30
0.0
 11
173.8016534569077
 21
471.1323874365493
 31
0.0
  0
ARC
  5
8A
330
1F
100
AcDbEntity
  8
VISIBLE
100
AcDbCircle
 10
175.0016534569077
 20
471.1323874365493
 30
0.0
 40
1.2
100
AcDbArc
 50
180.0
 51
0.0
  0
LINE
  5
8B
330
1F
100
AcDbEntity
  8
VISIBLE
100
AcDbLine
 10
176.2016534569077
 20
473.3322199978427
 30
0.0
 11
176.2016534569077
 21
471.1323874365493
 31
0.0
  0
ARC
  5
8C
330
1F
100
AcDbEntity
  8
VISIBLE
100
AcDbCircle
 10
176.7016534569077
 20
473.3322199978427
 30
0.0
 40
0.5
100
AcDbArc
 50
53.11944419672771
 51
180.0
  0
ARC
  5
8D
330
1F
100
AcDbEntity
  8
VISIBLE
100
AcDbCircle
 10
175.8014302485531
 20
472.1323874365493
 30
0.0
 40
2.0
100
AcDbArc
 50
30.00000000000014
 51
53.11944419671957
  0
LINE
  5
8E
330
1F
100
AcDbEntity
  8
VISIBLE
100
AcDbLine
 10
179.4243031877189
 20
469.8573874365479
 30
0.0
 11
177.533481056122
 21
473.1323874365494
 31
0.0
  0
ARC
  5
8F
330
1F
100
AcDbEntity
  8
VISIBLE
100
AcDbCircle
 10
181.1563539952879
 20
470.8573874365478
 30
0.0
 40
2.0
100
AcDbArc
 50
209.9999999999979
 51
270.0
  0
LINE
  5
90
330
1F
100
AcDbEntity
  8
VISIBLE
100
AcDbLine
 10
300.0469588193887
 20
468.8573874365504
 30
0.0
 11
181.1563539952879
 21
468.8573874365478
 31
0.0
  0
ARC
  5
91
330
1F
100
AcDbEntity
  8
VISIBLE
100
AcDbCircle
 10
300.0469588193887
 20
470.8573874365504
 30
0.0
 40
2.0
100
AcDbArc
 50
270.0
 51
330.0000000000039
  0
LINE
  5
92
330
1F
100
AcDbEntity
  8
VISIBLE
100
AcDbLine
 10
303.6698317585532
 20
473.132387436549
 30
0.0
 11
301.7790096269582
 21
469.8573874365503
 31
0.0
  0
ARC
  5
93
330
1F
100
AcDbEntity
  8
VISIBLE
100
AcDbCircle
 10
305.4018825661227
 20
472.1323874365493
 30
0.0
 40
2.0
100
AcDbArc
 50
126.8805558033003
 51
150.0000000000134
  0
ARC
  5
94
330
1F
100
AcDbEntity
  8
VISIBLE
100
AcDbCircle
 10
304.5016593577677
 20
473.3322199978427
 30
0.0
 40
0.5
100
AcDbArc
 50
0.0
 51
126.8805558033049
  0
LINE
  5
95
330
1F
100
AcDbEntity
  8
VISIBLE
100
AcDbLine
 10
305.0016593577677
 20
473.3322199978427
 30
0.0
 11
305.0016593577677
 21
471.1323874365493
 31
0.0
  0
ARC
  5
96
330
1F
100
AcDbEntity
  8
VISIBLE
100
AcDbCircle
 10
306.2016593577677
 20
471.1323874365493
 30
0.0
 40
1.2
100
AcDbArc
 50
180.0
 51
0.0
  0
LINE
  5
97
330
1F
100
AcDbEntity
  8
VISIBLE
100
AcDbLine
 10
307.4016593577677
 20
473.3322199978427
 30
0.0
 11
307.4016593577677
 21
471.1323874365493
 31
0.0
  0
ARC
  5
98
330
1F
100
AcDbEntity
  8
VISIBLE
100
AcDbCircle
 10
307.9016593577677
 20
473.3322199978427
 30
0.0
 40
0.5
100
AcDbArc
 50
53.11944419670427
 51
180.0
  0
ARC
  5
99
330
1F
100
AcDbEntity
  8
VISIBLE
100
AcDbCircle
 10
307.0014361494137
 20
472.1323874365493
 30
0.0
 40
2.0
100
AcDbArc
 50
29.99999999999832
 51
53.11944419673357
  0
LINE
  5
9A
330
1F
100
AcDbEntity
  8
VISIBLE
100
AcDbLine
 10
308.7334869569827
 20
473.1323874365492
 30
0.0
 11
310.6243090885777
 21
469.8573874365507
 31
0.0
  0
ARC
  5
9B
330
1F
100
AcDbEntity
  8
VISIBLE
100
AcDbCircle
 10
312.3563598961467
 20
470.8573874365507
 30
0.0
 40
2.0
100
AcDbArc
 50
209.9999999999961
 51
270.0
  0
LINE
  5
9C
330
1F
100
AcDbEntity
  8
VISIBLE
100
AcDbLine
 10
417.9817792307217
 20
468.8573874365531
 30
0.0
 11
312.3563598961467
 21
468.8573874365507
 31
0.0
  0
ARC
  5
9D
330
1F
100
AcDbEntity
  8
VISIBLE
100
AcDbCircle
 10
417.9817792307217
 20
470.8573874365531
 30
0.0
 40
2.0
100
AcDbArc
 50
270.0
 51
330.0000000000009
  0
LINE
  5
9E
330
1F
100
AcDbEntity
  8
VISIBLE
100
AcDbLine
 10
419.7138300382908
 20
469.857387436553
 30
0.0
 11
421.6046521698847
 21
473.1323874365494
 31
0.0
  0
ARC
  5
9F
330
1F
100
AcDbEntity
  8
VISIBLE
100
AcDbCircle
 10
423.3367029774537
 20
472.1323874365494
 30
0.0
 40
2.0
100
AcDbArc
 50
126.8805558031583
 51
150.0000000000025
  0
ARC
  5
A0
330
1F
100
AcDbEntity
  8
VISIBLE
100
AcDbCircle
 10
422.4364797691007
 20
473.3322199978444
 30
0.0
 40
0.5
100
AcDbArc
 50
0.0
 51
126.880555803086
  0
LINE
  5
A1
330
1F
100
AcDbEntity
  8
VISIBLE
100
AcDbLine
 10
422.9364797691007
 20
471.1323874365494
 30
0.0
 11
422.9364797691007
 21
473.3322199978444
 31
0.0
  0
ARC
  5
A2
330
1F
100
AcDbEntity
  8
VISIBLE
100
AcDbCircle
 10
424.1364797691007
 20
471.1323874365494
 30
0.0
 40
1.19999999999998
100
AcDbArc
 50
180.0
 51
0.0
  0
LINE
  5
A3
330
1F
100
AcDbEntity
  8
VISIBLE
100
AcDbLine
 10
425.3364797691007
 20
471.1323874365494
 30
0.0
 11
425.3364797691007
 21
473.3322199978445
 31
0.0
  0
ARC
  5
A4
330
1F
100
AcDbEntity
  8
VISIBLE
100
AcDbCircle
 10
425.8364797691007
 20
473.3322199978445
 30
0.0
 40
0.5
100
AcDbArc
 50
53.11944419683455
 51
180.0
  0
ARC
  5
A5
330
1F
100
AcDbEntity
  8
VISIBLE
100
AcDbCircle
 10
424.9362565607487
 20
472.1323874365494
 30
0.0
 40
2.0
100
AcDbArc
 50
29.99999999999609
 51
53.11944419683812
  0
LINE
  5
A6
330
1F
100
AcDbEntity
  8
VISIBLE
100
AcDbLine
 10
428.5591294999111
 20
469.8573874365537
 30
0.0
 11
426.6683073683178
 21
473.1323874365494
 31
0.0
  0
ARC
  5
A7
330
1F
100
AcDbEntity
  8
VISIBLE
100
AcDbCircle
 10
430.2911803074808
 20
470.8573874365534
 30
0.0
 40
2.0
100
AcDbArc
 50
209.9999999999844
 51
270.0
  0
LINE
  5
A8
330
1F
100
AcDbEntity
  8
VISIBLE
100
AcDbLine
 10
436.7563598961467
 20
468.8573874365535
 30
0.0
 11
430.2911803074808
 21
468.8573874365534
 31
0.0
  0
ARC
  5
A9
330
1F
100
AcDbEntity
  8
VISIBLE
100
AcDbCircle
 10
436.7563598961467
 20
465.8573874365493
 30
0.0
 40
3.0
100
AcDbArc
 50
0.0
 51
90.0
  0
LINE
  5
AA
330
1F
100
AcDbEntity
  8
VISIBLE
100
AcDbLine
 10
439.7563598961467
 20
376.6073874365493
 30
0.0
 11
439.7563598961467
 21
465.8573874365493
 31
0.0
  0
ARC
  5
AB
330
1F
100
AcDbEntity
  8
VISIBLE
100
AcDbCircle
 10
436.7563598961467
 20
376.6073874365493
 30
0.0
 40
3.0
100
AcDbArc
 50
270.0
 51
0.0
  0
LINE
  5
AC
330
1F
100
AcDbEntity
  8
VISIBLE
100
AcDbLine
 10
430.2911803074808
 20
373.6073874365493
 30
0.0
 11
436.7563598961467
 21
373.6073874365493
 31
0.0
  0
ARC
  5
AD
330
1F
100
AcDbEntity
  8
VISIBLE
100
AcDbCircle
 10
430.2911803074808
 20
371.6073874365493
 30
0.0
 40
2.0
100
AcDbArc
 50
90.0
 51
150.0000000000025
  0
LINE
  5
AE
330
1F
100
AcDbEntity
  8
VISIBLE
100
AcDbLine
 10
428.5591294999107
 20
372.6073874365493
 30
0.0
 11
426.6683073683173
 21
369.3323874365536
 31
0.0
  0
ARC
  5
AF
330
1F
100
AcDbEntity
  8
VISIBLE
100
AcDbCircle
 10
424.9362565607487
 20
370.3323874365533
 30
0.0
 40
2.0
100
AcDbArc
 50
306.8805558031781
 51
330.0000000000009
  0
ARC
  5
B0
330
1F
100
AcDbEntity
  8
VISIBLE
100
AcDbCircle
 10
425.8364797691007
 20
369.1325548752583
 30
0.0
 40
0.5
100
AcDbArc
 50
180.0
 51
306.8805558031837
  0
LINE
  5
B1
330
1F
100
AcDbEntity
  8
VISIBLE
100
AcDbLine
 10
425.3364797691007
 20
371.3323874365532
 30
0.0
 11
425.3364797691007
 21
369.1325548752583
 31
0.0
  0
ARC
  5
B2
330
1F
100
AcDbEntity
  8
VISIBLE
100
AcDbCircle
 10
424.1364797691007
 20
371.3323874365532
 30
0.0
 40
1.19999999999998
100
AcDbArc
 50
0.0
 51
180.0
  0
LINE
  5
B3
330
1F
100
AcDbEntity
  8
VISIBLE
100
AcDbLine
 10
422.9364797691007
 20
371.3323874365532
 30
0.0
 11
422.9364797691007
 21
369.1325548752582
 31
0.0
  0
ARC
  5
B4
330
1F
100
AcDbEntity
  8
VISIBLE
100
AcDbCircle
 10
422.4364797691007
 20
369.1325548752582
 30
0.0
 40
0.5
100
AcDbArc
 50
233.1194441968202
 51
0.0
  0
ARC
  5
B5
330
1F
100
AcDbEntity
  8
VISIBLE
100
AcDbCircle
 10
423.3367029774537
 20
370.3323874365533
 30
0.0
 40
2.0
100
AcDbArc
 50
209.9999999999961
 51
233.1194441968046
  0
LINE
  5
B6
330
1F
100
AcDbEntity
  8
VISIBLE
100
AcDbLine
 10
419.7138300382908
 20
372.6073874365493
 30
0.0
 11
421.6046521698847
 21
369.3323874365533
 31
0.0
  0
ARC
  5
B7
330
1F
100
AcDbEntity
  8
VISIBLE
100
AcDbCircle
 10
417.9817792307217
 20
371.6073874365493
 30
0.0
 40
2.0
100
AcDbArc
 50
29.99999999999913
 51
90.0
  0
LINE
  5
B8
330
1F
100
AcDbEntity
  8
VISIBLE
100
AcDbLine
 10
363.6916758159497
 20
373.6073874365493
 30
0.0
 11
417.9817792307217
 21
373.6073874365493
 31
0.0
  0
ARC
  5
B9
330
1F
100
AcDbEntity
  8
VISIBLE
100
AcDbCircle
 10
363.6916758159497
 20
371.6073874365493
 30
0.0
 40
2.0
100
AcDbArc
 50
90.0
 51
149.9999999999936
  0
LINE
  5
BA
330
1F
100
AcDbEntity
  8
VISIBLE
100
AcDbLine
 10
361.9596250083812
 20
372.6073874365493
 30
0.0
 11
360.0688028767852
 21
369.3323874365493
 31
0.0
  0
ARC
  5
BB
330
1F
100
AcDbEntity
  8
VISIBLE
100
AcDbCircle
 10
358.3367520692167
 20
370.3323874365493
 30
0.0
 40
2.0
100
AcDbArc
 50
292.0146626322131
 51
329.9999999999966
  0
ARC
  5
BC
330
1F
100
AcDbEntity
  8
VISIBLE
100
AcDbCircle
 10
358.8990178560476
 20
368.9417554992784
 30
0.0
 40
0.5
100
AcDbArc
 50
180.0
 51
292.0146626323365
  0
LINE
  5
BD
330
1F
100
AcDbEntity
  8
VISIBLE
100
AcDbLine
 10
358.3990178560476
 20
368.9417554992784
 30
0.0
 11
358.3990178560476
 21
371.3323874365493
 31
0.0
  0
ARC
  5
BE
330
1F
100
AcDbEntity
  8
VISIBLE
100
AcDbCircle
 10
357.1990178560487
 20
371.3323874365493
 30
0.0
 40
1.2
100
AcDbArc
 50
0.0
 51
180.0
  0
LINE
  5
BF
330
1F
100
AcDbEntity
  8
VISIBLE
100
AcDbLine
 10
355.9990178560477
 20
368.9417554992784
 30
0.0
 11
355.9990178560477
 21
371.3323874365493
 31
0.0
  0
ARC
  5
C0
330
1F
100
AcDbEntity
  8
VISIBLE
100
AcDbCircle
 10
355.4990178560477
 20
368.9417554992784
 30
0.0
 40
0.5
100
AcDbArc
 50
247.9853373677893
 51
0.0
  0
ARC
  5
C1
330
1F
100
AcDbEntity
  8
VISIBLE
100
AcDbCircle
 10
356.0612836428808
 20
370.3323874365493
 30
0.0
 40
2.00000000000004
100
AcDbArc
 50
209.9999999999975
 51
247.9853373677555
  0
LINE
  5
C2
330
1F
100
AcDbEntity
  8
VISIBLE
100
AcDbLine
 10
352.4384107037157
 20
372.6073874365493
 30
0.0
 11
354.3292328353117
 21
369.3323874365493
 31
0.0
  0
ARC
  5
C3
330
1F
100
AcDbEntity
  8
VISIBLE
100
AcDbCircle
 10
350.7063598961468
 20
371.6073874365493
 30
0.0
 40
2.00000000000008
100
AcDbArc
 50
29.99999999999751
 51
90.0
  0
LINE
  5
C4
330
1F
100
AcDbEntity
  8
VISIBLE
100
AcDbLine
 10
164.0063598961467
 20
373.6073874365493
 30
0.0
 11
350.7063598961468
 21
373.6073874365493
 31
0.0
  0
LINE
  5
C5
330
1F
100
AcDbEntity
  8
VISIBLE
100
AcDbLine
 10
351.7938598961467
 20
389.6323874365494
 30
0.0
 11
351.7938598961467
 21
376.6323874365494
 31
0.0
  0
ARC
  5
C6
330
1F
100
AcDbEntity
  8
VISIBLE
100
AcDbCircle
 10
352.2938598961467
 20
376.6323874365494
 30
0.0
 40
0.5000000000000004
100
AcDbArc
 50
180.0
 51
270.0
  0
LINE
  5
C7
330
1F
100
AcDbEntity
  8
VISIBLE
100
AcDbLine
 10
367.6751098961468
 20
376.1323874365493
 30
0.0
 11
352.2938598961467
 21
376.1323874365493
 31
0.0
  0
ARC
  5
C8
330
1F
100
AcDbEntity
  8
VISIBLE
100
AcDbCircle
 10
367.6751098961468
 20
376.6323874365494
 30
0.0
 40
0.5000000000000071
100
AcDbArc
 50
270.0
 51
0.0
  0
LINE
  5
C9
330
1F
100
AcDbEntity
  8
VISIBLE
100
AcDbLine
 10
368.1751098961468
 20
389.6323874365493
 30
0.0
 11
368.1751098961468
 21
376.6323874365494
 31
0.0
  0
ARC
  5
CA
330
1F
100
AcDbEntity
  8
VISIBLE
100
AcDbCircle
 10
367.6751098961468
 20
389.6323874365493
 30
0.0
 40
0.5000000000000071
100
AcDbArc
 50
0.0
 51
90.0
  0
LINE
  5
CB
330
1F
100
AcDbEntity
  8
VISIBLE
100
AcDbLine
 10
352.2938598961467
 20
390.1323874365494
 30
0.0
 11
367.6751098961468
 21
390.1323874365493
 31
0.0
  0
ARC
  5
CC
330
1F
100
AcDbEntity
  8
VISIBLE
100
AcDbCircle
 10
352.2938598961467
 20
389.6323874365494
 30
0.0
 40
0.5000000000000004
100
AcDbArc
 50
90.0
 51
180.0
  0
ARC
  5
CD
330
1F
100
AcDbEntity
  8
VISIBLE
100
AcDbCircle
 10
312.9251098961467
 20
391.6323874365493
 30
0.0
 40
0.5000000000000071
100
AcDbArc
 50
90.0
 51
180.0
  0
LINE
  5
CE
330
1F
100
AcDbEntity
  8
VISIBLE
100
AcDbLine
 10
312.4251098961467
 20
377.6323874365494
 30
0.0
 11
312.4251098961467
 21
391.6323874365493
 31
0.0
  0
ARC
  5
CF
330
1F
100
AcDbEntity
  8
VISIBLE
100
AcDbCircle
 10
312.9251098961467
 20
377.6323874365494
 30
0.0
 40
0.5000000000000071
100
AcDbArc
 50
180.0
 51
270.0
  0
LINE
  5
D0
330
1F
100
AcDbEntity
  8
VISIBLE
100
AcDbLine
 10
318.9251098961468
 20
377.1323874365494
 30
0.0
 11
312.9251098961467
 21
377.1323874365494
 31
0.0
  0
ARC
  5
D1
330
1F
100
AcDbEntity
  8
VISIBLE
100
AcDbCircle
 10
318.9251098961468
 20
377.6323874365494
 30
0.0
 40
0.4999999999999891
100
AcDbArc
 50
270.0
 51
0.0
  0
LINE
  5
D2
330
1F
100
AcDbEntity
  8
VISIBLE
100
AcDbLine
 10
319.4251098961468
 20
391.6323874365493
 30
0.0
 11
319.4251098961468
 21
377.6323874365494
 31
0.0
  0
ARC
  5
D3
330
1F
100
AcDbEntity
  8
VISIBLE
100
AcDbCircle
 10
318.9251098961468
 20
391.6323874365493
 30
0.0
 40
0.5000000000000071
100
AcDbArc
 50
0.0
 51
90.0
  0
LINE
  5
D4
330
1F
100
AcDbEntity
  8
VISIBLE
100
AcDbLine
 10
312.9251098961467
 20
392.1323874365493
 30
0.0
 11
318.9251098961468
 21
392.1323874365493
 31
0.0
  0
ARC
  5
D5
330
1F
100
AcDbEntity
  8
VISIBLE
100
AcDbCircle
 10
408.2131098961468
 20
429.7323874365493
 30
0.0
 40
0.5
100
AcDbArc
 50
90.0
 51
180.0
  0
LINE
  5
D6
330
1F
100
AcDbEntity
  8
VISIBLE
100
AcDbLine
 10
407.7131098961468
 20
415.7323874365493
 30
0.0
 11
407.7131098961468
 21
429.7323874365493
 31
0.0
  0
ARC
  5
D7
330
1F
100
AcDbEntity
  8
VISIBLE
100
AcDbCircle
 10
408.2131098961468
 20
415.7323874365493
 30
0.0
 40
0.5000000000000071
100
AcDbArc
 50
180.0
 51
270.0
  0
LINE
  5
D8
330
1F
100
AcDbEntity
  8
VISIBLE
100
AcDbLine
 10
414.2131098961468
 20
415.2323874365493
 30
0.0
 11
408.2131098961468
 21
415.2323874365493
 31
0.0
  0
ARC
  5
D9
330
1F
100
AcDbEntity
  8
VISIBLE
100
AcDbCircle
 10
414.2131098961468
 20
415.7323874365493
 30
0.0
 40
0.5
100
AcDbArc
 50
270.0
 51
0.0
  0
LINE
  5
DA
330
1F
100
AcDbEntity
  8
VISIBLE
100
AcDbLine
 10
414.7131098961468
 20
429.7323874365493
 30
0.0
 11
414.7131098961468
 21
415.7323874365493
 31
0.0
  0
ARC
  5
DB
330
1F
100
AcDbEntity
  8
VISIBLE
100
AcDbCircle
 10
414.2131098961468
 20
429.7323874365493
 30
0.0
 40
0.5000000000000071
100
AcDbArc
 50
0.0
 51
90.0
  0
LINE
  5
DC
330
1F
100
AcDbEntity
  8
VISIBLE
100
AcDbLine
 10
408.2131098961468
 20
430.2323874365493
 30
0.0
 11
414.2131098961468
 21
430.2323874365493
 31
0.0
  0
ARC
  5
DD
330
1F
100
AcDbEntity
  8
VISIBLE
100
AcDbCircle
 10
384.3371098961467
 20
415.7323874365493
 30
0.0
 40
0.5000000000000071
100
AcDbArc
 50
180.0
 51
270.0
  0
LINE
  5
DE
330
1F
100
AcDbEntity
  8
VISIBLE
100
AcDbLine
 10
390.3371098961467
 20
415.2323874365493
 30
0.0
 11
384.3371098961467
 21
415.2323874365493
 31
0.0
  0
ARC
  5
DF
330
1F
100
AcDbEntity
  8
VISIBLE
100
AcDbCircle
 10
390.3371098961467
 20
415.7323874365493
 30
0.0
 40
0.5
100
AcDbArc
 50
270.0
 51
0.0
  0
LINE
  5
E0
330
1F
100
AcDbEntity
  8
VISIBLE
100
AcDbLine
 10
390.8371098961467
 20
429.7323874365493
 30
0.0
 11
390.8371098961467
 21
415.7323874365493
 31
0.0
  0
ARC
  5
E1
330
1F
100
AcDbEntity
  8
VISIBLE
100
AcDbCircle
 10
390.3371098961467
 20
429.7323874365493
 30
0.0
 40
0.5000000000000071
100
AcDbArc
 50
0.0
 51
90.0
  0
LINE
  5
E2
330
1F
100
AcDbEntity
  8
VISIBLE
100
AcDbLine
 10
384.3371098961467
 20
430.2323874365493
 30
0.0
 11
390.3371098961467
 21
430.2323874365493
 31
0.0
  0
ARC
  5
E3
330
1F
100
AcDbEntity
  8
VISIBLE
100
AcDbCircle
 10
384.3371098961467
 20
429.7323874365493
 30
0.0
 40
0.5
100
AcDbArc
 50
90.0
 51
180.0
  0
LINE
  5
E4
330
1F
100
AcDbEntity
  8
VISIBLE
100
AcDbLine
 10
383.8371098961467
 20
415.7323874365493
 30
0.0
 11
383.8371098961467
 21
429.7323874365493
 31
0.0
  0
LINE
  5
E5
330
1F
100
AcDbEntity
  8
VISIBLE
100
AcDbLine
 10
304.1688598961467
 20
414.7323874365493
 30
0.0
 11
304.1688598961467
 21
427.7323874365493
 31
0.0
  0
ARC
  5
E6
330
1F
100
AcDbEntity
  8
VISIBLE
100
AcDbCircle
 10
304.6688598961467
 20
414.7323874365493
 30
0.0
 40
0.5000000000000071
100
AcDbArc
 50
180.0
 51
270.0
  0
LINE
  5
E7
330
1F
100
AcDbEntity
  8
VISIBLE
100
AcDbLine
 10
317.6688598961467
 20
414.2323874365493
 30
0.0
 11
304.6688598961467
 21
414.2323874365493
 31
0.0
  0
ARC
  5
E8
330
1F
100
AcDbEntity
  8
VISIBLE
100
AcDbCircle
 10
317.6688598961467
 20
414.7323874365493
 30
0.0
 40
0.5
100
AcDbArc
 50
270.0
 51
0.0
  0
LINE
  5
E9
330
1F
100
AcDbEntity
  8
VISIBLE
100
AcDbLine
 10
318.1688598961467
 20
427.7323874365493
 30
0.0
 11
318.1688598961467
 21
414.7323874365493
 31
0.0
  0
ARC
  5
EA
330
1F
100
AcDbEntity
  8
VISIBLE
100
AcDbCircle
 10
317.6688598961467
 20
427.7323874365493
 30
0.0
 40
0.5000000000000071
100
AcDbArc
 50
0.0
 51
90.0
  0
LINE
  5
EB
330
1F
100
AcDbEntity
  8
VISIBLE
100
AcDbLine
 10
304.6688598961467
 20
428.2323874365493
 30
0.0
 11
317.6688598961467
 21
428.2323874365493
 31
0.0
  0
ARC
  5
EC
330
1F
100
AcDbEntity
  8
VISIBLE
100
AcDbCircle
 10
304.6688598961467
 20
427.7323874365493
 30
0.0
 40
0.5
100
AcDbArc
 50
90.0
 51
180.0
  0
ARC
  5
ED
330
1F
100
AcDbEntity
  8
VISIBLE
100
AcDbCircle
 10
361.8188598961467
 20
427.7323874365493
 30
0.0
 40
0.5
100
AcDbArc
 50
90.0
 51
180.0
  0
LINE
  5
EE
330
1F
100
AcDbEntity
  8
VISIBLE
100
AcDbLine
 10
361.3188598961467
 20
414.7323874365493
 30
0.0
 11
361.3188598961467
 21
427.7323874365493
 31
0.0
  0
ARC
  5
EF
330
1F
100
AcDbEntity
  8
VISIBLE
100
AcDbCircle
 10
361.8188598961467
 20
414.7323874365493
 30
0.0
 40
0.5000000000000071
100
AcDbArc
 50
180.0
 51
270.0
  0
LINE
  5
F0
330
1F
100
AcDbEntity
  8
VISIBLE
100
AcDbLine
 10
374.8188598961467
 20
414.2323874365493
 30
0.0
 11
361.8188598961467
 21
414.2323874365493
 31
0.0
  0
ARC
  5
F1
330
1F
100
AcDbEntity
  8
VISIBLE
100
AcDbCircle
 10
374.8188598961467
 20
414.7323874365493
 30
0.0
 40
0.5
100
AcDbArc
 50
270.0
 51
0.0
  0
LINE
  5
F2
330
1F
100
AcDbEntity
  8
VISIBLE
100
AcDbLine
 10
375.3188598961467
 20
427.7323874365493
 30
0.0
 11
375.3188598961467
 21
414.7323874365493
 31
0.0
  0
ARC
  5
F3
330
1F
100
AcDbEntity
  8
VISIBLE
100
AcDbCircle
 10
374.8188598961467
 20
427.7323874365493
 30
0.0
 40
0.5000000000000071
100
AcDbArc
 50
0.0
 51
90.0
  0
LINE
  5
F4
330
1F
100
AcDbEntity
  8
VISIBLE
100
AcDbLine
 10
361.8188598961467
 20
428.2323874365493
 30
0.0
 11
374.8188598961467
 21
428.2323874365493
 31
0.0
  0
ARC
  5
F5
330
1F
100
AcDbEntity
  8
VISIBLE
100
AcDbCircle
 10
190.3688598961467
 20
427.7323874365493
 30
0.0
 40
0.5
100
AcDbArc
 50
90.0
 51
180.0
  0
LINE
  5
F6
330
1F
100
AcDbEntity
  8
VISIBLE
100
AcDbLine
 10
189.8688598961467
 20
414.7323874365493
 30
0.0
 11
189.8688598961467
 21
427.7323874365493
 31
0.0
  0
ARC
  5
F7
330
1F
100
AcDbEntity
  8
VISIBLE
100
AcDbCircle
 10
190.3688598961467
 20
414.7323874365493
 30
0.0
 40
0.5
100
AcDbArc
 50
180.0
 51
270.0
  0
LINE
  5
F8
330
1F
100
AcDbEntity
  8
VISIBLE
100
AcDbLine
 10
203.3688598961467
 20
414.2323874365493
 30
0.0
 11
190.3688598961467
 21
414.2323874365493
 31
0.0
  0
ARC
  5
F9
330
1F
100
AcDbEntity
  8
VISIBLE
100
AcDbCircle
 10
203.3688598961467
 20
414.7323874365493
 30
0.0
 40
0.5
100
AcDbArc
 50
270.0
 51
0.0
  0
LINE
  5
FA
330
1F
100
AcDbEntity
  8
VISIBLE
100
AcDbLine
 10
203.8688598961467
 20
427.7323874365493
 30
0.0
 11
203.8688598961467
 21
414.7323874365493
 31
0.0
  0
ARC
  5
FB
330
1F
100
AcDbEntity
  8
VISIBLE
100
AcDbCircle
 10
203.3688598961467
 20
427.7323874365493
 30
0.0
 40
0.5
100
AcDbArc
 50
0.0
 51
90.0
  0
LINE
  5
FC
330
1F
100
AcDbEntity
  8
VISIBLE
100
AcDbLine
 10
190.3688598961467
 20
428.2323874365493
 30
0.0
 11
203.3688598961467
 21
428.2323874365493
 31
0.0
  0
ARC
  5
FD
330
1F
100
AcDbEntity
  8
VISIBLE
100
AcDbCircle
 10
247.5188598961467
 20
427.7323874365493
 30
0.0
 40
0.5
100
AcDbArc
 50
90.0
 51
180.0
  0
LINE
  5
FE
330
1F
100
AcDbEntity
  8
VISIBLE
100
AcDbLine
 10
247.0188598961467
 20
414.7323874365493
 30
0.0
 11
247.0188598961467
 21
427.7323874365493
 31
0.0
  0
ARC
  5
FF
330
1F
100
AcDbEntity
  8
VISIBLE
100
AcDbCircle
 10
247.5188598961467
 20
414.7323874365493
 30
0.0
 40
0.5000000000000071
100
AcDbArc
 50
180.0
 51
270.0
  0
LINE
  5
100
330
1F
100
AcDbEntity
  8
VISIBLE
100
AcDbLine
 10
260.5188598961467
 20
414.2323874365493
 30
0.0
 11
247.5188598961467
 21
414.2323874365493
 31
0.0
  0
ARC
  5
101
330
1F
100
AcDbEntity
  8
VISIBLE
100
AcDbCircle
 10
260.5188598961467
 20
414.7323874365493
 30
0.0
 40
0.5
100
AcDbArc
 50
270.0
 51
0.0
  0
LINE
  5
102
330
1F
100
AcDbEntity
  8
VISIBLE
100
AcDbLine
 10
261.0188598961467
 20
427.7323874365493
 30
0.0
 11
261.0188598961467
 21
414.7323874365493
 31
0.0
  0
ARC
  5
103
330
1F
100
AcDbEntity
  8
VISIBLE
100
AcDbCircle
 10
260.5188598961467
 20
427.7323874365493
 30
0.0
 40
0.5000000000000071
100
AcDbArc
 50
0.0
 51
90.0
  0
LINE
  5
104
330
1F
100
AcDbEntity
  8
VISIBLE
100
AcDbLine
 10
247.5188598961467
 20
428.2323874365493
 30
0.0
 11
260.5188598961467
 21
428.2323874365493
 31
0.0
  0
ARC
  5
105
330
1F
100
AcDbEntity
  8
VISIBLE
100
AcDbCircle
 10
285.6188598961467
 20
427.7323874365493
 30
0.0
 40
0.5
100
AcDbArc
 50
90.0
 51
180.0
  0
LINE
  5
106
330
1F
100
AcDbEntity
  8
VISIBLE
100
AcDbLine
 10
285.1188598961467
 20
414.7323874365493
 30
0.0
 11
285.1188598961467
 21
427.7323874365493
 31
0.0
  0
ARC
  5
107
330
1F
100
AcDbEntity
  8
VISIBLE
100
AcDbCircle
 10
285.6188598961467
 20
414.7323874365493
 30
0.0
 40
0.5000000000000071
100
AcDbArc
 50
180.0
 51
270.0
  0
LINE
  5
108
330
1F
100
AcDbEntity
  8
VISIBLE
100
AcDbLine
 10
298.6188598961467
 20
414.2323874365493
 30
0.0
 11
285.6188598961467
 21
414.2323874365493
 31
0.0
  0
ARC
  5
109
330
1F
100
AcDbEntity
  8
VISIBLE
100
AcDbCircle
 10
298.6188598961467
 20
414.7323874365493
 30
0.0
 40
0.5
100
AcDbArc
 50
270.0
 51
0.0
  0
LINE
  5
10A
330
1F
100
AcDbEntity
  8
VISIBLE
100
AcDbLine
 10
299.1188598961467
 20
427.7323874365493
 30
0.0
 11
299.1188598961467
 21
414.7323874365493
 31
0.0
  0
ARC
  5
10B
330
1F
100
AcDbEntity
  8
VISIBLE
100
AcDbCircle
 10
298.6188598961467
 20
427.7323874365493
 30
0.0
 40
0.5000000000000071
100
AcDbArc
 50
0.0
 51
90.0
  0
LINE
  5
10C
330
1F
100
AcDbEntity
  8
VISIBLE
100
AcDbLine
 10
285.6188598961467
 20
428.2323874365493
 30
0.0
 11
298.6188598961467
 21
428.2323874365493
 31
0.0
  0
ARC
  5
10D
330
1F
100
AcDbEntity
  8
VISIBLE
100
AcDbCircle
 10
342.7688598961468
 20
427.7323874365493
 30
0.0
 40
0.5
100
AcDbArc
 50
90.0
 51
180.0
  0
LINE
  5
10E
330
1F
100
AcDbEntity
  8
VISIBLE
100
AcDbLine
 10
342.2688598961468
 20
414.7323874365493
 30
0.0
 11
342.2688598961468
 21
427.7323874365493
 31
0.0
  0
ARC
  5
10F
330
1F
100
AcDbEntity
  8
VISIBLE
100
AcDbCircle
 10
342.7688598961468
 20
414.7323874365493
 30
0.0
 40
0.5000000000000071
100
AcDbArc
 50
180.0
 51
270.0
  0
LINE
  5
110
330
1F
100
AcDbEntity
  8
VISIBLE
100
AcDbLine
 10
355.7688598961468
 20
414.2323874365493
 30
0.0
 11
342.7688598961468
 21
414.2323874365493
 31
0.0
  0
ARC
  5
111
330
1F
100
AcDbEntity
  8
VISIBLE
100
AcDbCircle
 10
355.7688598961468
 20
414.7323874365493
 30
0.0
 40
0.5
100
AcDbArc
 50
270.0
 51
0.0
  0
LINE
  5
112
330
1F
100
AcDbEntity
  8
VISIBLE
100
AcDbLine
 10
356.2688598961468
 20
427.7323874365493
 30
0.0
 11
356.2688598961468
 21
414.7323874365493
 31
0.0
  0
ARC
  5
113
330
1F
100
AcDbEntity
  8
VISIBLE
100
AcDbCircle
 10
355.7688598961468
 20
427.7323874365493
 30
0.0
 40
0.5000000000000071
100
AcDbArc
 50
0.0
 51
90.0
  0
LINE
  5
114
330
1F
100
AcDbEntity
  8
VISIBLE
100
AcDbLine
 10
342.7688598961468
 20
428.2323874365493
 30
0.0
 11
355.7688598961468
 21
428.2323874365493
 31
0.0
  0
ARC
  5
115
330
1F
100
AcDbEntity
  8
VISIBLE
100
AcDbCircle
 10
241.4688598961467
 20
427.7323874365493
 30
0.0
 40
0.5000000000000071
100
AcDbArc
 50
0.0
 51
90.0
  0
LINE
  5
116
330
1F
100
AcDbEntity
  8
VISIBLE
100
AcDbLine
 10
228.4688598961467
 20
428.2323874365493
 30
0.0
 11
241.4688598961467
 21
428.2323874365493
 31
0.0
  0
ARC
  5
117
330
1F
100
AcDbEntity
  8
VISIBLE
100
AcDbCircle
 10
228.4688598961467
 20
427.7323874365493
 30
0.0
 40
0.5
100
AcDbArc
 50
90.0
 51
180.0
  0
LINE
  5
118
330
1F
100
AcDbEntity
  8
VISIBLE
100
AcDbLine
 10
227.9688598961467
 20
414.7323874365493
 30
0.0
 11
227.9688598961467
 21
427.7323874365493
 31
0.0
  0
ARC
  5
119
330
1F
100
AcDbEntity
  8
VISIBLE
100
AcDbCircle
 10
228.4688598961467
 20
414.7323874365493
 30
0.0
 40
0.5000000000000071
100
AcDbArc
 50
180.0
 51
270.0
  0
LINE
  5
11A
330
1F
100
AcDbEntity
  8
VISIBLE
100
AcDbLine
 10
241.4688598961467
 20
414.2323874365493
 30
0.0
 11
228.4688598961467
 21
414.2323874365493
 31
0.0
  0
ARC
  5
11B
330
1F
100
AcDbEntity
  8
VISIBLE
100
AcDbCircle
 10
241.4688598961467
 20
414.7323874365493
 30
0.0
 40
0.5
100
AcDbArc
 50
270.0
 51
0.0
  0
LINE
  5
11C
330
1F
100
AcDbEntity
  8
VISIBLE
100
AcDbLine
 10
241.9688598961467
 20
427.7323874365493
 30
0.0
 11
241.9688598961467
 21
414.7323874365493
 31
0.0
  0
ARC
  5
11D
330
1F
100
AcDbEntity
  8
VISIBLE
100
AcDbCircle
 10
184.3188598961467
 20
427.7323874365493
 30
0.0
 40
0.5
100
AcDbArc
 50
0.0
 51
90.0
  0
LINE
  5
11E
330
1F
100
AcDbEntity
  8
VISIBLE
100
AcDbLine
 10
171.3188598961467
 20
428.2323874365493
 30
0.0
 11
184.3188598961467
 21
428.2323874365493
 31
0.0
  0
ARC
  5
11F
330
1F
100
AcDbEntity
  8
VISIBLE
100
AcDbCircle
 10
171.3188598961467
 20
427.7323874365493
 30
0.0
 40
0.5
100
AcDbArc
 50
90.0
 51
180.0
  0
LINE
  5
120
330
1F
100
AcDbEntity
  8
VISIBLE
100
AcDbLine
 10
170.8188598961467
 20
414.7323874365493
 30
0.0
 11
170.8188598961467
 21
427.7323874365493
 31
0.0
  0
ARC
  5
121
330
1F
100
AcDbEntity
  8
VISIBLE
100
AcDbCircle
 10
171.3188598961467
 20
414.7323874365493
 30
0.0
 40
0.5
100
AcDbArc
 50
180.0
 51
270.0
  0
LINE
  5
122
330
1F
100
AcDbEntity
  8
VISIBLE
100
AcDbLine
 10
184.3188598961467
 20
414.2323874365493
 30
0.0
 11
171.3188598961467
 21
414.2323874365493
 31
0.0
  0
ARC
  5
123
330
1F
100
AcDbEntity
  8
VISIBLE
100
AcDbCircle
 10
184.3188598961467
 20
414.7323874365493
 30
0.0
 40
0.5
100
AcDbArc
 50
270.0
 51
0.0
  0
LINE
  5
124
330
1F
100
AcDbEntity
  8
VISIBLE
100
AcDbLine
 10
184.8188598961467
 20
427.7323874365493
 30
0.0
 11
184.8188598961467
 21
414.7323874365493
 31
0.0
  0
ARC
  5
125
330
1F
100
AcDbEntity
  8
VISIBLE
100
AcDbCircle
 10
323.7188598961467
 20
427.7323874365493
 30
0.0
 40
0.5
100
AcDbArc
 50
90.0
 51
180.0
  0
LINE
  5
126
330
1F
100
AcDbEntity
  8
VISIBLE
100
AcDbLine
 10
323.2188598961467
 20
414.7323874365493
 30
0.0
 11
323.2188598961467
 21
427.7323874365493
 31
0.0
  0
ARC
  5
127
330
1F
100
AcDbEntity
  8
VISIBLE
100
AcDbCircle
 10
323.7188598961467
 20
414.7323874365493
 30
0.0
 40
0.5000000000000071
100
AcDbArc
 50
180.0
 51
270.0
  0
LINE
  5
128
330
1F
100
AcDbEntity
  8
VISIBLE
100
AcDbLine
 10
336.7188598961467
 20
414.2323874365493
 30
0.0
 11
323.7188598961467
 21
414.2323874365493
 31
0.0
  0
ARC
  5
129
330
1F
100
AcDbEntity
  8
VISIBLE
100
AcDbCircle
 10
336.7188598961467
 20
414.7323874365493
 30
0.0
 40
0.5
100
AcDbArc
 50
270.0
 51
0.0
  0
LINE
  5
12A
330
1F
100
AcDbEntity
  8
VISIBLE
100
AcDbLine
 10
337.2188598961467
 20
427.7323874365493
 30
0.0
 11
337.2188598961467
 21
414.7323874365493
 31
0.0
  0
ARC
  5
12B
330
1F
100
AcDbEntity
  8
VISIBLE
100
AcDbCircle
 10
336.7188598961467
 20
427.7323874365493
 30
0.0
 40
0.5000000000000071
100
AcDbArc
 50
0.0
 51
90.0
  0
LINE
  5
12C
330
1F
100
AcDbEntity
  8
VISIBLE
100
AcDbLine
 10
323.7188598961467
 20
428.2323874365493
 30
0.0
 11
336.7188598961467
 21
428.2323874365493
 31
0.0
  0
LINE
  5
12D
330
1F
100
AcDbEntity
  8
VISIBLE
100
AcDbLine
 10
392.2751098961467
 20
414.7323874365493
 30
0.0
 11
392.2751098961467
 21
427.7323874365493
 31
0.0
  0
ARC
  5
12E
330
1F
100
AcDbEntity
  8
VISIBLE
100
AcDbCircle
 10
392.7751098961467
 20
414.7323874365493
 30
0.0
 40
0.5000000000000071
100
AcDbArc
 50
180.0
 51
270.0
  0
LINE
  5
12F
330
1F
100
AcDbEntity
  8
VISIBLE
100
AcDbLine
 10
405.7751098961468
 20
414.2323874365493
 30
0.0
 11
392.7751098961467
 21
414.2323874365493
 31
0.0
  0
ARC
  5
130
330
1F
100
AcDbEntity
  8
VISIBLE
100
AcDbCircle
 10
405.7751098961468
 20
414.7323874365493
 30
0.0
 40
0.5
100
AcDbArc
 50
270.0
 51
0.0
  0
LINE
  5
131
330
1F
100
AcDbEntity
  8
VISIBLE
100
AcDbLine
 10
406.2751098961468
 20
427.7323874365493
 30
0.0
 11
406.2751098961468
 21
414.7323874365493
 31
0.0
  0
ARC
  5
132
330
1F
100
AcDbEntity
  8
VISIBLE
100
AcDbCircle
 10
405.7751098961468
 20
427.7323874365493
 30
0.0
 40
0.5000000000000071
100
AcDbArc
 50
0.0
 51
90.0
  0
LINE
  5
133
330
1F
100
AcDbEntity
  8
VISIBLE
100
AcDbLine
 10
392.7751098961467
 20
428.2323874365493
 30
0.0
 11
405.7751098961468
 21
428.2323874365493
 31
0.0
  0
ARC
  5
134
330
1F
100
AcDbEntity
  8
VISIBLE
100
AcDbCircle
 10
392.7751098961467
 20
427.7323874365493
 30
0.0
 40
0.5
100
AcDbArc
 50
90.0
 51
180.0
  0
ARC
  5
135
330
1F
100
AcDbEntity
  8
VISIBLE
100
AcDbCircle
 10
209.4188598961467
 20
427.7323874365493
 30
0.0
 40
0.5
100
AcDbArc
 50
90.0
 51
180.0
  0
LINE
  5
136
330
1F
100
AcDbEntity
  8
VISIBLE
100
AcDbLine
 10
208.9188598961467
 20
414.7323874365493
 30
0.0
 11
208.9188598961467
 21
427.7323874365493
 31
0.0
  0
ARC
  5
137
330
1F
100
AcDbEntity
  8
VISIBLE
100
AcDbCircle
 10
209.4188598961467
 20
414.7323874365493
 30
0.0
 40
0.5
100
AcDbArc
 50
180.0
 51
270.0
  0
LINE
  5
138
330
1F
100
AcDbEntity
  8
VISIBLE
100
AcDbLine
 10
222.4188598961467
 20
414.2323874365493
 30
0.0
 11
209.4188598961467
 21
414.2323874365493
 31
0.0
  0
ARC
  5
139
330
1F
100
AcDbEntity
  8
VISIBLE
100
AcDbCircle
 10
222.4188598961467
 20
414.7323874365493
 30
0.0
 40
0.5
100
AcDbArc
 50
270.0
 51
0.0
  0
LINE
  5
13A
330
1F
100
AcDbEntity
  8
VISIBLE
100
AcDbLine
 10
222.9188598961467
 20
427.7323874365493
 30
0.0
 11
222.9188598961467
 21
414.7323874365493
 31
0.0
  0
ARC
  5
13B
330
1F
100
AcDbEntity
  8
VISIBLE
100
AcDbCircle
 10
222.4188598961467
 20
427.7323874365493
 30
0.0
 40
0.5000000000000071
100
AcDbArc
 50
0.0
 51
90.0
  0
LINE
  5
13C
330
1F
100
AcDbEntity
  8
VISIBLE
100
AcDbLine
 10
209.4188598961467
 20
428.2323874365493
 30
0.0
 11
222.4188598961467
 21
428.2323874365493
 31
0.0
  0
ARC
  5
13D
330
1F
100
AcDbEntity
  8
VISIBLE
100
AcDbCircle
 10
266.5688598961467
 20
427.7323874365493
 30
0.0
 40
0.5
100
AcDbArc
 50
90.0
 51
180.0
  0
LINE
  5
13E
330
1F
100
AcDbEntity
  8
VISIBLE
100
AcDbLine
 10
266.0688598961467
 20
414.7323874365493
 30
0.0
 11
266.0688598961467
 21
427.7323874365493
 31
0.0
  0
ARC
  5
13F
330
1F
100
AcDbEntity
  8
VISIBLE
100
AcDbCircle
 10
266.5688598961467
 20
414.7323874365493
 30
0.0
 40
0.5000000000000071
100
AcDbArc
 50
180.0
 51
270.0
  0
LINE
  5
140
330
1F
100
AcDbEntity
  8
VISIBLE
100
AcDbLine
 10
279.5688598961467
 20
414.2323874365493
 30
0.0
 11
266.5688598961467
 21
414.2323874365493
 31
0.0
  0
ARC
  5
141
330
1F
100
AcDbEntity
  8
VISIBLE
100
AcDbCircle
 10
279.5688598961467
 20
414.7323874365493
 30
0.0
 40
0.5
100
AcDbArc
 50
270.0
 51
0.0
  0
LINE
  5
142
330
1F
100
AcDbEntity
  8
VISIBLE
100
AcDbLine
 10
280.0688598961467
 20
427.7323874365493
 30
0.0
 11
280.0688598961467
 21
414.7323874365493
 31
0.0
  0
ARC
  5
143
330
1F
100
AcDbEntity
  8
VISIBLE
100
AcDbCircle
 10
279.5688598961467
 20
427.7323874365493
 30
0.0
 40
0.5000000000000071
100
AcDbArc
 50
0.0
 51
90.0
  0
LINE
  5
144
330
1F
100
AcDbEntity
  8
VISIBLE
100
AcDbLine
 10
266.5688598961467
 20
428.2323874365493
 30
0.0
 11
279.5688598961467
 21
428.2323874365493
 31
0.0
  0
ARC
  5
145
330
1F
100
AcDbEntity
  8
VISIBLE
100
AcDbCircle
 10
389.1063598961467
 20
446.7823874365494
 30
0.0
 40
0.5000000000000071
100
AcDbArc
 50
0.0
 51
90.0
  0
LINE
  5
146
330
1F
100
AcDbEntity
  8
VISIBLE
100
AcDbLine
 10
376.1063598961467
 20
447.2823874365494
 30
0.0
 11
389.1063598961467
 21
447.2823874365494
 31
0.0
  0
ARC
  5
147
330
1F
100
AcDbEntity
  8
VISIBLE
100
AcDbCircle
 10
376.1063598961467
 20
446.7823874365494
 30
0.0
 40
0.5
100
AcDbArc
 50
90.0
 51
180.0
  0
LINE
  5
148
330
1F
100
AcDbEntity
  8
VISIBLE
100
AcDbLine
 10
375.6063598961467
 20
433.7823874365494
 30
0.0
 11
375.6063598961467
 21
446.7823874365494
 31
0.0
  0
ARC
  5
149
330
1F
100
AcDbEntity
  8
VISIBLE
100
AcDbCircle
 10
376.1063598961467
 20
433.7823874365494
 30
0.0
 40
0.5000000000000071
100
AcDbArc
 50
180.0
 51
270.0
  0
LINE
  5
14A
330
1F
100
AcDbEntity
  8
VISIBLE
100
AcDbLine
 10
389.1063598961467
 20
433.2823874365494
 30
0.0
 11
376.1063598961467
 21
433.2823874365494
 31
0.0
  0
ARC
  5
14B
330
1F
100
AcDbEntity
  8
VISIBLE
100
AcDbCircle
 10
389.1063598961467
 20
433.7823874365494
 30
0.0
 40
0.5
100
AcDbArc
 50
270.0
 51
0.0
  0
LINE
  5
14C
330
1F
100
AcDbEntity
  8
VISIBLE
100
AcDbLine
 10
389.6063598961467
 20
446.7823874365494
 30
0.0
 11
389.6063598961467
 21
433.7823874365494
 31
0.0
  0
LINE
  5
14D
330
1F
100
AcDbEntity
  8
VISIBLE
100
AcDbLine
 10
393.8188598961467
 20
433.7823874365494
 30
0.0
 11
393.8188598961467
 21
446.7823874365494
 31
0.0
  0
ARC
  5
14E
330
1F
100
AcDbEntity
  8
VISIBLE
100
AcDbCircle
 10
394.3188598961467
 20
433.7823874365494
 30
0.0
 40
0.5000000000000071
100
AcDbArc
 50
180.0
 51
270.0
  0
LINE
  5
14F
330
1F
100
AcDbEntity
  8
VISIBLE
100
AcDbLine
 10
395.3188598961467
 20
433.2823874365494
 30
0.0
 11
394.3188598961467
 21
433.2823874365494
 31
0.0
  0
ARC
  5
150
330
1F
100
AcDbEntity
  8
VISIBLE
100
AcDbCircle
 10
395.3188598961467
 20
433.7823874365494
 30
0.0
 40
0.5
100
AcDbArc
 50
270.0
 51
0.0
  0
LINE
  5
151
330
1F
100
AcDbEntity
  8
VISIBLE
100
AcDbLine
 10
395.8188598961467
 20
446.7823874365494
 30
0.0
 11
395.8188598961467
 21
433.7823874365494
 31
0.0
  0
ARC
  5
152
330
1F
100
AcDbEntity
  8
VISIBLE
100
AcDbCircle
 10
395.3188598961467
 20
446.7823874365494
 30
0.0
 40
0.5000000000000071
100
AcDbArc
 50
0.0
 51
90.0
  0
LINE
  5
153
330
1F
100
AcDbEntity
  8
VISIBLE
100
AcDbLine
 10
394.3188598961467
 20
447.2823874365494
 30
0.0
 11
395.3188598961467
 21
447.2823874365494
 31
0.0
  0
ARC
  5
154
330
1F
100
AcDbEntity
  8
VISIBLE
100
AcDbCircle
 10
394.3188598961467
 20
446.7823874365494
 30
0.0
 40
0.5
100
AcDbArc
 50
90.0
 51
180.0
  0
ARC
  5
155
330
1F
100
AcDbEntity
  8
VISIBLE
100
AcDbCircle
 10
436.7313598961467
 20
446.7823874365494
 30
0.0
 40
0.5000000000000071
100
AcDbArc
 50
0.0
 51
90.0
  0
LINE
  5
156
330
1F
100
AcDbEntity
  8
VISIBLE
100
AcDbLine
 10
423.7313598961467
 20
447.2823874365494
 30
0.0
 11
436.7313598961467
 21
447.2823874365494
 31
0.0
  0
ARC
  5
157
330
1F
100
AcDbEntity
  8
VISIBLE
100
AcDbCircle
 10
423.7313598961467
 20
446.7823874365494
 30
0.0
 40
0.5
100
AcDbArc
 50
90.0
 51
180.0
  0
LINE
  5
158
330
1F
100
AcDbEntity
  8
VISIBLE
100
AcDbLine
 10
423.2313598961467
 20
433.7823874365494
 30
0.0
 11
423.2313598961467
 21
446.7823874365494
 31
0.0
  0
ARC
  5
159
330
1F
100
AcDbEntity
  8
VISIBLE
100
AcDbCircle
 10
423.7313598961467
 20
433.7823874365494
 30
0.0
 40
0.5000000000000071
100
AcDbArc
 50
180.0
 51
270.0
  0
LINE
  5
15A
330
1F
100
AcDbEntity
  8
VISIBLE
100
AcDbLine
 10
436.7313598961467
 20
433.2823874365494
 30
0.0
 11
423.7313598961467
 21
433.2823874365494
 31
0.0
  0
ARC
  5
15B
330
1F
100
AcDbEntity
  8
VISIBLE
100
AcDbCircle
 10
436.7313598961467
 20
433.7823874365494
 30
0.0
 40
0.5
100
AcDbArc
 50
270.0
 51
0.0
  0
LINE
  5
15C
330
1F
100
AcDbEntity
  8
VISIBLE
100
AcDbLine
 10
437.2313598961467
 20
446.7823874365494
 30
0.0
 11
437.2313598961467
 21
433.7823874365494
 31
0.0
  0
ARC
  5
15D
330
1F
100
AcDbEntity
  8
VISIBLE
100
AcDbCircle
 10
162.7251098961467
 20
427.7323874365493
 30
0.0
 40
0.5
100
AcDbArc
 50
90.0
 51
180.0
  0
LINE
  5
15E
330
1F
100
AcDbEntity
  8
VISIBLE
100
AcDbLine
 10
162.2251098961467
 20
414.7323874365493
 30
0.0
 11
162.2251098961467
 21
427.7323874365493
 31
0.0
  0
ARC
  5
15F
330
1F
100
AcDbEntity
  8
VISIBLE
100
AcDbCircle
 10
162.7251098961467
 20
414.7323874365493
 30
0.0
 40
0.5
100
AcDbArc
 50
180.0
 51
270.0
  0
LINE
  5
160
330
1F
100
AcDbEntity
  8
VISIBLE
100
AcDbLine
 10
163.7251098961467
 20
414.2323874365493
 30
0.0
 11
162.7251098961467
 21
414.2323874365493
 31
0.0
  0
ARC
  5
161
330
1F
100
AcDbEntity
  8
VISIBLE
100
AcDbCircle
 10
163.7251098961467
 20
414.7323874365493
 30
0.0
 40
0.5
100
AcDbArc
 50
270.0
 51
0.0
  0
LINE
  5
162
330
1F
100
AcDbEntity
  8
VISIBLE
100
AcDbLine
 10
164.2251098961467
 20
427.7323874365493
 30
0.0
 11
164.2251098961467
 21
414.7323874365493
 31
0.0
  0
ARC
  5
163
330
1F
100
AcDbEntity
  8
VISIBLE
100
AcDbCircle
 10
163.7251098961467
 20
427.7323874365493
 30
0.0
 40
0.5
100
AcDbArc
 50
0.0
 51
90.0
  0
LINE
  5
164
330
1F
100
AcDbEntity
  8
VISIBLE
100
AcDbLine
 10
162.7251098961467
 20
428.2323874365493
 30
0.0
 11
163.7251098961467
 21
428.2323874365493
 31
0.0
  0
ARC
  5
165
330
1F
100
AcDbEntity
  8
VISIBLE
100
AcDbCircle
 10
399.9188598961467
 20
446.7823874365494
 30
0.0
 40
0.5
100
AcDbArc
 50
90.0
 51
180.0
  0
LINE
  5
166
330
1F
100
AcDbEntity
  8
VISIBLE
100
AcDbLine
 10
399.4188598961467
 20
433.7823874365494
 30
0.0
 11
399.4188598961467
 21
446.7823874365494
 31
0.0
  0
ARC
  5
167
330
1F
100
AcDbEntity
  8
VISIBLE
100
AcDbCircle
 10
399.9188598961467
 20
433.7823874365494
 30
0.0
 40
0.5000000000000071
100
AcDbArc
 50
180.0
 51
270.0
  0
LINE
  5
168
330
1F
100
AcDbEntity
  8
VISIBLE
100
AcDbLine
 10
412.9188598961467
 20
433.2823874365494
 30
0.0
 11
399.9188598961467
 21
433.2823874365494
 31
0.0
  0
ARC
  5
169
330
1F
100
AcDbEntity
  8
VISIBLE
100
AcDbCircle
 10
412.9188598961467
 20
433.7823874365494
 30
0.0
 40
0.5
100
AcDbArc
 50
270.0
 51
0.0
  0
LINE
  5
16A
330
1F
100
AcDbEntity
  8
VISIBLE
100
AcDbLine
 10
413.4188598961467
 20
446.7823874365494
 30
0.0
 11
413.4188598961467
 21
433.7823874365494
 31
0.0
  0
ARC
  5
16B
330
1F
100
AcDbEntity
  8
VISIBLE
100
AcDbCircle
 10
412.9188598961467
 20
446.7823874365494
 30
0.0
 40
0.5000000000000071
100
AcDbArc
 50
0.0
 51
90.0
  0
LINE
  5
16C
330
1F
100
AcDbEntity
  8
VISIBLE
100
AcDbLine
 10
399.9188598961467
 20
447.2823874365494
 30
0.0
 11
412.9188598961467
 21
447.2823874365494
 31
0.0
  0
ARC
  5
16D
330
1F
100
AcDbEntity
  8
VISIBLE
100
AcDbCircle
 10
417.5188598961468
 20
446.7823874365494
 30
0.0
 40
0.5
100
AcDbArc
 50
90.0
 51
180.0
  0
LINE
  5
16E
330
1F
100
AcDbEntity
  8
VISIBLE
100
AcDbLine
 10
417.0188598961468
 20
433.7823874365494
 30
0.0
 11
417.0188598961468
 21
446.7823874365494
 31
0.0
  0
ARC
  5
16F
330
1F
100
AcDbEntity
  8
VISIBLE
100
AcDbCircle
 10
417.5188598961468
 20
433.7823874365494
 30
0.0
 40
0.5000000000000071
100
AcDbArc
 50
180.0
 51
270.0
  0
LINE
  5
170
330
1F
100
AcDbEntity
  8
VISIBLE
100
AcDbLine
 10
418.5188598961468
 20
433.2823874365494
 30
0.0
 11
417.5188598961468
 21
433.2823874365494
 31
0.0
  0
ARC
  5
171
330
1F
100
AcDbEntity
  8
VISIBLE
100
AcDbCircle
 10
418.5188598961468
 20
433.7823874365494
 30
0.0
 40
0.5
100
AcDbArc
 50
270.0
 51
0.0
  0
LINE
  5
172
330
1F
100
AcDbEntity
  8
VISIBLE
100
AcDbLine
 10
419.0188598961468
 20
446.7823874365494
 30
0.0
 11
419.0188598961468
 21
433.7823874365494
 31
0.0
  0
ARC
  5
173
330
1F
100
AcDbEntity
  8
VISIBLE
100
AcDbCircle
 10
418.5188598961468
 20
446.7823874365494
 30
0.0
 40
0.5000000000000071
100
AcDbArc
 50
0.0
 51
90.0
  0
LINE
  5
174
330
1F
100
AcDbEntity
  8
VISIBLE
100
AcDbLine
 10
417.5188598961468
 20
447.2823874365494
 30
0.0
 11
418.5188598961468
 21
447.2823874365494
 31
0.0
  0
ARC
  5
175
330
1F
100
AcDbEntity
  8
VISIBLE
100
AcDbCircle
 10
242.7563598961467
 20
446.7823874365494
 30
0.0
 40
0.5
100
AcDbArc
 50
90.0
 51
180.0
  0
LINE
  5
176
330
1F
100
AcDbEntity
  8
VISIBLE
100
AcDbLine
 10
242.2563598961467
 20
433.7823874365494
 30
0.0
 11
242.2563598961467
 21
446.7823874365494
 31
0.0
  0
ARC
  5
177
330
1F
100
AcDbEntity
  8
VISIBLE
100
AcDbCircle
 10
242.7563598961467
 20
433.7823874365494
 30
0.0
 40
0.5000000000000071
100
AcDbArc
 50
180.0
 51
270.0
  0
LINE
  5
178
330
1F
100
AcDbEntity
  8
VISIBLE
100
AcDbLine
 10
255.7563598961467
 20
433.2823874365494
 30
0.0
 11
242.7563598961467
 21
433.2823874365494
 31
0.0
  0
ARC
  5
179
330
1F
100
AcDbEntity
  8
VISIBLE
100
AcDbCircle
 10
255.7563598961467
 20
433.7823874365494
 30
0.0
 40
0.5
100
AcDbArc
 50
270.0
 51
0.0
  0
LINE
  5
17A
330
1F
100
AcDbEntity
  8
VISIBLE
100
AcDbLine
 10
256.2563598961467
 20
446.7823874365494
 30
0.0
 11
256.2563598961467
 21
433.7823874365494
 31
0.0
  0
ARC
  5
17B
330
1F
100
AcDbEntity
  8
VISIBLE
100
AcDbCircle
 10
255.7563598961467
 20
446.7823874365494
 30
0.0
 40
0.5000000000000071
100
AcDbArc
 50
0.0
 51
90.0
  0
LINE
  5
17C
330
1F
100
AcDbEntity
  8
VISIBLE
100
AcDbLine
 10
242.7563598961467
 20
447.2823874365494
 30
0.0
 11
255.7563598961467
 21
447.2823874365494
 31
0.0
  0
ARC
  5
17D
330
1F
100
AcDbEntity
  8
VISIBLE
100
AcDbCircle
 10
318.9563598961468
 20
446.7823874365494
 30
0.0
 40
0.5
100
AcDbArc
 50
90.0
 51
180.0
  0
LINE
  5
17E
330
1F
100
AcDbEntity
  8
VISIBLE
100
AcDbLine
 10
318.4563598961468
 20
433.7823874365494
 30
0.0
 11
318.4563598961468
 21
446.7823874365494
 31
0.0
  0
ARC
  5
17F
330
1F
100
AcDbEntity
  8
VISIBLE
100
AcDbCircle
 10
318.9563598961468
 20
433.7823874365494
 30
0.0
 40
0.5000000000000071
100
AcDbArc
 50
180.0
 51
270.0
  0
LINE
  5
180
330
1F
100
AcDbEntity
  8
VISIBLE
100
AcDbLine
 10
331.9563598961468
 20
433.2823874365494
 30
0.0
 11
318.9563598961468
 21
433.2823874365494
 31
0.0
  0
ARC
  5
181
330
1F
100
AcDbEntity
  8
VISIBLE
100
AcDbCircle
 10
331.9563598961468
 20
433.7823874365494
 30
0.0
 40
0.5
100
AcDbArc
 50
270.0
 51
0.0
  0
LINE
  5
182
330
1F
100
AcDbEntity
  8
VISIBLE
100
AcDbLine
 10
332.4563598961468
 20
446.7823874365494
 30
0.0
 11
332.4563598961468
 21
433.7823874365494
 31
0.0
  0
ARC
  5
183
330
1F
100
AcDbEntity
  8
VISIBLE
100
AcDbCircle
 10
331.9563598961468
 20
446.7823874365494
 30
0.0
 40
0.5000000000000071
100
AcDbArc
 50
0.0
 51
90.0
  0
LINE
  5
184
330
1F
100
AcDbEntity
  8
VISIBLE
100
AcDbLine
 10
318.9563598961468
 20
447.2823874365494
 30
0.0
 11
331.9563598961468
 21
447.2823874365494
 31
0.0
  0
ARC
  5
185
330
1F
100
AcDbEntity
  8
VISIBLE
100
AcDbCircle
 10
357.0563598961467
 20
446.7823874365494
 30
0.0
 40
0.5
100
AcDbArc
 50
90.0
 51
180.0
  0
LINE
  5
186
330
1F
100
AcDbEntity
  8
VISIBLE
100
AcDbLine
 10
356.5563598961467
 20
433.7823874365494
 30
0.0
 11
356.5563598961467
 21
446.7823874365494
 31
0.0
  0
ARC
  5
187
330
1F
100
AcDbEntity
  8
VISIBLE
100
AcDbCircle
 10
357.0563598961467
 20
433.7823874365494
 30
0.0
 40
0.5000000000000071
100
AcDbArc
 50
180.0
 51
270.0
  0
LINE
  5
188
330
1F
100
AcDbEntity
  8
VISIBLE
100
AcDbLine
 10
370.0563598961467
 20
433.2823874365494
 30
0.0
 11
357.0563598961467
 21
433.2823874365494
 31
0.0
  0
ARC
  5
189
330
1F
100
AcDbEntity
  8
VISIBLE
100
AcDbCircle
 10
370.0563598961467
 20
433.7823874365494
 30
0.0
 40
0.5
100
AcDbArc
 50
270.0
 51
0.0
  0
LINE
  5
18A
330
1F
100
AcDbEntity
  8
VISIBLE
100
AcDbLine
 10
370.5563598961467
 20
446.7823874365494
 30
0.0
 11
370.5563598961467
 21
433.7823874365494
 31
0.0
  0
ARC
  5
18B
330
1F
100
AcDbEntity
  8
VISIBLE
100
AcDbCircle
 10
370.0563598961467
 20
446.7823874365494
 30
0.0
 40
0.5000000000000071
100
AcDbArc
 50
0.0
 51
90.0
  0
LINE
  5
18C
330
1F
100
AcDbEntity
  8
VISIBLE
100
AcDbLine
 10
357.0563598961467
 20
447.2823874365494
 30
0.0
 11
370.0563598961467
 21
447.2823874365494
 31
0.0
  0
ARC
  5
18D
330
1F
100
AcDbEntity
  8
VISIBLE
100
AcDbCircle
 10
261.8063598961467
 20
446.7823874365494
 30
0.0
 40
0.5
100
AcDbArc
 50
90.0
 51
180.0
  0
LINE
  5
18E
330
1F
100
AcDbEntity
  8
VISIBLE
100
AcDbLine
 10
261.3063598961467
 20
433.7823874365494
 30
0.0
 11
261.3063598961467
 21
446.7823874365494
 31
0.0
  0
ARC
  5
18F
330
1F
100
AcDbEntity
  8
VISIBLE
100
AcDbCircle
 10
261.8063598961467
 20
433.7823874365494
 30
0.0
 40
0.5000000000000071
100
AcDbArc
 50
180.0
 51
270.0
  0
LINE
  5
190
330
1F
100
AcDbEntity
  8
VISIBLE
100
AcDbLine
 10
274.8063598961467
 20
433.2823874365494
 30
0.0
 11
261.8063598961467
 21
433.2823874365494
 31
0.0
  0
ARC
  5
191
330
1F
100
AcDbEntity
  8
VISIBLE
100
AcDbCircle
 10
274.8063598961467
 20
433.7823874365494
 30
0.0
 40
0.5
100
AcDbArc
 50
270.0
 51
0.0
  0
LINE
  5
192
330
1F
100
AcDbEntity
  8
VISIBLE
100
AcDbLine
 10
275.3063598961467
 20
446.7823874365494
 30
0.0
 11
275.3063598961467
 21
433.7823874365494
 31
0.0
  0
ARC
  5
193
330
1F
100
AcDbEntity
  8
VISIBLE
100
AcDbCircle
 10
274.8063598961467
 20
446.7823874365494
 30
0.0
 40
0.5000000000000071
100
AcDbArc
 50
0.0
 51
90.0
  0
LINE
  5
194
330
1F
100
AcDbEntity
  8
VISIBLE
100
AcDbLine
 10
261.8063598961467
 20
447.2823874365494
 30
0.0
 11
274.8063598961467
 21
447.2823874365494
 31
0.0
  0
ARC
  5
195
330
1F
100
AcDbEntity
  8
VISIBLE
100
AcDbCircle
 10
280.8563598961467
 20
446.7823874365494
 30
0.0
 40
0.5
100
AcDbArc
 50
90.0
 51
180.0
  0
LINE
  5
196
330
1F
100
AcDbEntity
  8
VISIBLE
100
AcDbLine
 10
280.3563598961467
 20
433.7823874365494
 30
0.0
 11
280.3563598961467
 21
446.7823874365494
 31
0.0
  0
ARC
  5
197
330
1F
100
AcDbEntity
  8
VISIBLE
100
AcDbCircle
 10
280.8563598961467
 20
433.7823874365494
 30
0.0
 40
0.5000000000000071
100
AcDbArc
 50
180.0
 51
270.0
  0
LINE
  5
198
330
1F
100
AcDbEntity
  8
VISIBLE
100
AcDbLine
 10
293.8563598961467
 20
433.2823874365494
 30
0.0
 11
280.8563598961467
 21
433.2823874365494
 31
0.0
  0
ARC
  5
199
330
1F
100
AcDbEntity
  8
VISIBLE
100
AcDbCircle
 10
293.8563598961467
 20
433.7823874365494
 30
0.0
 40
0.5
100
AcDbArc
 50
270.0
 51
0.0
  0
LINE
  5
19A
330
1F
100
AcDbEntity
  8
VISIBLE
100
AcDbLine
 10
294.3563598961467
 20
446.7823874365494
 30
0.0
 11
294.3563598961467
 21
433.7823874365494
 31
0.0
  0
ARC
  5
19B
330
1F
100
AcDbEntity
  8
VISIBLE
100
AcDbCircle
 10
293.8563598961467
 20
446.7823874365494
 30
0.0
 40
0.5000000000000071
100
AcDbArc
 50
0.0
 51
90.0
  0
LINE
  5
19C
330
1F
100
AcDbEntity
  8
VISIBLE
100
AcDbLine
 10
280.8563598961467
 20
447.2823874365494
 30
0.0
 11
293.8563598961467
 21
447.2823874365494
 31
0.0
  0
ARC
  5
19D
330
1F
100
AcDbEntity
  8
VISIBLE
100
AcDbCircle
 10
299.9063598961467
 20
446.7823874365494
 30
0.0
 40
0.5
100
AcDbArc
 50
90.0
 51
180.0
  0
LINE
  5
19E
330
1F
100
AcDbEntity
  8
VISIBLE
100
AcDbLine
 10
299.4063598961467
 20
433.7823874365494
 30
0.0
 11
299.4063598961467
 21
446.7823874365494
 31
0.0
  0
ARC
  5
19F
330
1F
100
AcDbEntity
  8
VISIBLE
100
AcDbCircle
 10
299.9063598961467
 20
433.7823874365494
 30
0.0
 40
0.5000000000000071
100
AcDbArc
 50
180.0
 51
270.0
  0
LINE
  5
1A0
330
1F
100
AcDbEntity
  8
VISIBLE
100
AcDbLine
 10
312.9063598961467
 20
433.2823874365494
 30
0.0
 11
299.9063598961467
 21
433.2823874365494
 31
0.0
  0
ARC
  5
1A1
330
1F
100
AcDbEntity
  8
VISIBLE
100
AcDbCircle
 10
312.9063598961467
 20
433.7823874365494
 30
0.0
 40
0.5
100
AcDbArc
 50
270.0
 51
0.0
  0
LINE
  5
1A2
330
1F
100
AcDbEntity
  8
VISIBLE
100
AcDbLine
 10
313.4063598961467
 20
446.7823874365494
 30
0.0
 11
313.4063598961467
 21
433.7823874365494
 31
0.0
  0
ARC
  5
1A3
330
1F
100
AcDbEntity
  8
VISIBLE
100
AcDbCircle
 10
312.9063598961467
 20
446.7823874365494
 30
0.0
 40
0.5000000000000071
100
AcDbArc
 50
0.0
 51
90.0
  0
LINE
  5
1A4
330
1F
100
AcDbEntity
  8
VISIBLE
100
AcDbLine
 10
299.9063598961467
 20
447.2823874365494
 30
0.0
 11
312.9063598961467
 21
447.2823874365494
 31
0.0
  0
ARC
  5
1A5
330
1F
100
AcDbEntity
  8
VISIBLE
100
AcDbCircle
 10
223.7063598961467
 20
446.7823874365494
 30
0.0
 40
0.5
100
AcDbArc
 50
90.0
 51
180.0
  0
LINE
  5
1A6
330
1F
100
AcDbEntity
  8
VISIBLE
100
AcDbLine
 10
223.2063598961467
 20
433.7823874365494
 30
0.0
 11
223.2063598961467
 21
446.7823874365494
 31
0.0
  0
ARC
  5
1A7
330
1F
100
AcDbEntity
  8
VISIBLE
100
AcDbCircle
 10
223.7063598961467
 20
433.7823874365494
 30
0.0
 40
0.5000000000000071
100
AcDbArc
 50
180.0
 51
270.0
  0
LINE
  5
1A8
330
1F
100
AcDbEntity
  8
VISIBLE
100
AcDbLine
 10
236.7063598961467
 20
433.2823874365494
 30
0.0
 11
223.7063598961467
 21
433.2823874365494
 31
0.0
  0
ARC
  5
1A9
330
1F
100
AcDbEntity
  8
VISIBLE
100
AcDbCircle
 10
236.7063598961467
 20
433.7823874365494
 30
0.0
 40
0.5
100
AcDbArc
 50
270.0
 51
0.0
  0
LINE
  5
1AA
330
1F
100
AcDbEntity
  8
VISIBLE
100
AcDbLine
 10
237.2063598961467
 20
446.7823874365494
 30
0.0
 11
237.2063598961467
 21
433.7823874365494
 31
0.0
  0
ARC
  5
1AB
330
1F
100
AcDbEntity
  8
VISIBLE
100
AcDbCircle
 10
236.7063598961467
 20
446.7823874365494
 30
0.0
 40
0.5000000000000071
100
AcDbArc
 50
0.0
 51
90.0
  0
LINE
  5
1AC
330
1F
100
AcDbEntity
  8
VISIBLE
100
AcDbLine
 10
223.7063598961467
 20
447.2823874365494
 30
0.0
 11
236.7063598961467
 21
447.2823874365494
 31
0.0
  0
ARC
  5
1AD
330
1F
100
AcDbEntity
  8
VISIBLE
100
AcDbCircle
 10
142.7438598961467
 20
446.7823874365494
 30
0.0
 40
0.5
100
AcDbArc
 50
90.0
 51
180.0
  0
LINE
  5
1AE
330
1F
100
AcDbEntity
  8
VISIBLE
100
AcDbLine
 10
142.2438598961467
 20
433.7823874365494
 30
0.0
 11
142.2438598961467
 21
446.7823874365494
 31
0.0
  0
ARC
  5
1AF
330
1F
100
AcDbEntity
  8
VISIBLE
100
AcDbCircle
 10
142.7438598961467
 20
433.7823874365494
 30
0.0
 40
0.5
100
AcDbArc
 50
180.0
 51
270.0
  0
LINE
  5
1B0
330
1F
100
AcDbEntity
  8
VISIBLE
100
AcDbLine
 10
155.7438598961467
 20
433.2823874365494
 30
0.0
 11
142.7438598961467
 21
433.2823874365494
 31
0.0
  0
ARC
  5
1B1
330
1F
100
AcDbEntity
  8
VISIBLE
100
AcDbCircle
 10
155.7438598961467
 20
433.7823874365494
 30
0.0
 40
0.5
100
AcDbArc
 50
270.0
 51
0.0
  0
LINE
  5
1B2
330
1F
100
AcDbEntity
  8
VISIBLE
100
AcDbLine
 10
156.2438598961467
 20
446.7823874365494
 30
0.0
 11
156.2438598961467
 21
433.7823874365494
 31
0.0
  0
ARC
  5
1B3
330
1F
100
AcDbEntity
  8
VISIBLE
100
AcDbCircle
 10
155.7438598961467
 20
446.7823874365494
 30
0.0
 40
0.5
100
AcDbArc
 50
0.0
 51
90.0
  0
LINE
  5
1B4
330
1F
100
AcDbEntity
  8
VISIBLE
100
AcDbLine
 10
142.7438598961467
 20
447.2823874365494
 30
0.0
 11
155.7438598961467
 21
447.2823874365494
 31
0.0
  0
ARC
  5
1B5
330
1F
100
AcDbEntity
  8
VISIBLE
100
AcDbCircle
 10
338.0063598961467
 20
446.7823874365494
 30
0.0
 40
0.5
100
AcDbArc
 50
90.0
 51
180.0
  0
LINE
  5
1B6
330
1F
100
AcDbEntity
  8
VISIBLE
100
AcDbLine
 10
337.5063598961467
 20
433.7823874365494
 30
0.0
 11
337.5063598961467
 21
446.7823874365494
 31
0.0
  0
ARC
  5
1B7
330
1F
100
AcDbEntity
  8
VISIBLE
100
AcDbCircle
 10
338.0063598961467
 20
433.7823874365494
 30
0.0
 40
0.5000000000000071
100
AcDbArc
 50
180.0
 51
270.0
  0
LINE
  5
1B8
330
1F
100
AcDbEntity
  8
VISIBLE
100
AcDbLine
 10
351.0063598961467
 20
433.2823874365494
 30
0.0
 11
338.0063598961467
 21
433.2823874365494
 31
0.0
  0
ARC
  5
1B9
330
1F
100
AcDbEntity
  8
VISIBLE
100
AcDbCircle
 10
351.0063598961467
 20
433.7823874365494
 30
0.0
 40
0.5
100
AcDbArc
 50
270.0
 51
0.0
  0
LINE
  5
1BA
330
1F
100
AcDbEntity
  8
VISIBLE
100
AcDbLine
 10
351.5063598961467
 20
446.7823874365494
 30
0.0
 11
351.5063598961467
 21
433.7823874365494
 31
0.0
  0
ARC
  5
1BB
330
1F
100
AcDbEntity
  8
VISIBLE
100
AcDbCircle
 10
351.0063598961467
 20
446.7823874365494
 30
0.0
 40
0.5000000000000071
100
AcDbArc
 50
0.0
 51
90.0
  0
LINE
  5
1BC
330
1F
100
AcDbEntity
  8
VISIBLE
100
AcDbLine
 10
338.0063598961467
 20
447.2823874365494
 30
0.0
 11
351.0063598961467
 21
447.2823874365494
 31
0.0
  0
ARC
  5
1BD
330
1F
100
AcDbEntity
  8
VISIBLE
100
AcDbCircle
 10
185.6063598961467
 20
446.7823874365494
 30
0.0
 40
0.5
100
AcDbArc
 50
90.0
 51
180.0
  0
LINE
  5
1BE
330
1F
100
AcDbEntity
  8
VISIBLE
100
AcDbLine
 10
185.1063598961467
 20
433.7823874365494
 30
0.0
 11
185.1063598961467
 21
446.7823874365494
 31
0.0
  0
ARC
  5
1BF
330
1F
100
AcDbEntity
  8
VISIBLE
100
AcDbCircle
 10
185.6063598961467
 20
433.7823874365494
 30
0.0
 40
0.5
100
AcDbArc
 50
180.0
 51
270.0
  0
LINE
  5
1C0
330
1F
100
AcDbEntity
  8
VISIBLE
100
AcDbLine
 10
198.6063598961467
 20
433.2823874365494
 30
0.0
 11
185.6063598961467
 21
433.2823874365494
 31
0.0
  0
ARC
  5
1C1
330
1F
100
AcDbEntity
  8
VISIBLE
100
AcDbCircle
 10
198.6063598961467
 20
433.7823874365494
 30
0.0
 40
0.5
100
AcDbArc
 50
270.0
 51
0.0
  0
LINE
  5
1C2
330
1F
100
AcDbEntity
  8
VISIBLE
100
AcDbLine
 10
199.1063598961467
 20
446.7823874365494
 30
0.0
 11
199.1063598961467
 21
433.7823874365494
 31
0.0
  0
ARC
  5
1C3
330
1F
100
AcDbEntity
  8
VISIBLE
100
AcDbCircle
 10
198.6063598961467
 20
446.7823874365494
 30
0.0
 40
0.5
100
AcDbArc
 50
0.0
 51
90.0
  0
LINE
  5
1C4
330
1F
100
AcDbEntity
  8
VISIBLE
100
AcDbLine
 10
185.6063598961467
 20
447.2823874365494
 30
0.0
 11
198.6063598961467
 21
447.2823874365494
 31
0.0
  0
ARC
  5
1C5
330
1F
100
AcDbEntity
  8
VISIBLE
100
AcDbCircle
 10
166.5563598961467
 20
446.7823874365494
 30
0.0
 40
0.5
100
AcDbArc
 50
90.0
 51
180.0
  0
LINE
  5
1C6
330
1F
100
AcDbEntity
  8
VISIBLE
100
AcDbLine
 10
166.0563598961467
 20
433.7823874365494
 30
0.0
 11
166.0563598961467
 21
446.7823874365494
 31
0.0
  0
ARC
  5
1C7
330
1F
100
AcDbEntity
  8
VISIBLE
100
AcDbCircle
 10
166.5563598961467
 20
433.7823874365494
 30
0.0
 40
0.5
100
AcDbArc
 50
180.0
 51
270.0
  0
LINE
  5
1C8
330
1F
100
AcDbEntity
  8
VISIBLE
100
AcDbLine
 10
179.5563598961467
 20
433.2823874365494
 30
0.0
 11
166.5563598961467
 21
433.2823874365494
 31
0.0
  0
ARC
  5
1C9
330
1F
100
AcDbEntity
  8
VISIBLE
100
AcDbCircle
 10
179.5563598961467
 20
433.7823874365494
 30
0.0
 40
0.5
100
AcDbArc
 50
270.0
 51
0.0
  0
LINE
  5
1CA
330
1F
100
AcDbEntity
  8
VISIBLE
100
AcDbLine
 10
180.0563598961467
 20
446.7823874365494
 30
0.0
 11
180.0563598961467
 21
433.7823874365494
 31
0.0
  0
ARC
  5
1CB
330
1F
100
AcDbEntity
  8
VISIBLE
100
AcDbCircle
 10
179.5563598961467
 20
446.7823874365494
 30
0.0
 40
0.5
100
AcDbArc
 50
0.0
 51
90.0
  0
LINE
  5
1CC
330
1F
100
AcDbEntity
  8
VISIBLE
100
AcDbLine
 10
166.5563598961467
 20
447.2823874365494
 30
0.0
 11
179.5563598961467
 21
447.2823874365494
 31
0.0
  0
ARC
  5
1CD
330
1F
100
AcDbEntity
  8
VISIBLE
100
AcDbCircle
 10
137.1438598961467
 20
446.7823874365494
 30
0.0
 40
0.5
100
AcDbArc
 50
90.0
 51
180.0
  0
LINE
  5
1CE
330
1F
100
AcDbEntity
  8
VISIBLE
100
AcDbLine
 10
136.6438598961467
 20
433.7823874365494
 30
0.0
 11
136.6438598961467
 21
446.7823874365494
 31
0.0
  0
ARC
  5
1CF
330
1F
100
AcDbEntity
  8
VISIBLE
100
AcDbCircle
 10
137.1438598961467
 20
433.7823874365494
 30
0.0
 40
0.5
100
AcDbArc
 50
180.0
 51
270.0
  0
LINE
  5
1D0
330
1F
100
AcDbEntity
  8
VISIBLE
100
AcDbLine
 10
138.1438598961467
 20
433.2823874365494
 30
0.0
 11
137.1438598961467
 21
433.2823874365494
 31
0.0
  0
ARC
  5
1D1
330
1F
100
AcDbEntity
  8
VISIBLE
100
AcDbCircle
 10
138.1438598961467
 20
433.7823874365494
 30
0.0
 40
0.5
100
AcDbArc
 50
270.0
 51
0.0
  0
LINE
  5
1D2
330
1F
100
AcDbEntity
  8
VISIBLE
100
AcDbLine
 10
138.6438598961467
 20
446.7823874365494
 30
0.0
 11
138.6438598961467
 21
433.7823874365494
 31
0.0
  0
ARC
  5
1D3
330
1F
100
AcDbEntity
  8
VISIBLE
100
AcDbCircle
 10
138.1438598961467
 20
446.7823874365494
 30
0.0
 40
0.5
100
AcDbArc
 50
0.0
 51
90.0
  0
LINE
  5
1D4
330
1F
100
AcDbEntity
  8
VISIBLE
100
AcDbLine
 10
137.1438598961467
 20
447.2823874365494
 30
0.0
 11
138.1438598961467
 21
447.2823874365494
 31
0.0
  0
ARC
  5
1D5
330
1F
100
AcDbEntity
  8
VISIBLE
100
AcDbCircle
 10
423.7313598961467
 20
465.8323874365494
 30
0.0
 40
0.5
100
AcDbArc
 50
90.0
 51
180.0
  0
LINE
  5
1D6
330
1F
100
AcDbEntity
  8
VISIBLE
100
AcDbLine
 10
423.2313598961467
 20
452.8323874365494
 30
0.0
 11
423.2313598961467
 21
465.8323874365494
 31
0.0
  0
ARC
  5
1D7
330
1F
100
AcDbEntity
  8
VISIBLE
100
AcDbCircle
 10
423.7313598961467
 20
452.8323874365494
 30
0.0
 40
0.5000000000000071
100
AcDbArc
 50
180.0
 51
270.0
  0
LINE
  5
1D8
330
1F
100
AcDbEntity
  8
VISIBLE
100
AcDbLine
 10
436.7313598961467
 20
452.3323874365494
 30
0.0
 11
423.7313598961467
 21
452.3323874365494
 31
0.0
  0
ARC
  5
1D9
330
1F
100
AcDbEntity
  8
VISIBLE
100
AcDbCircle
 10
436.7313598961467
 20
452.8323874365494
 30
0.0
 40
0.5
100
AcDbArc
 50
270.0
 51
0.0
  0
LINE
  5
1DA
330
1F
100
AcDbEntity
  8
VISIBLE
100
AcDbLine
 10
437.2313598961467
 20
465.8323874365494
 30
0.0
 11
437.2313598961467
 21
452.8323874365494
 31
0.0
  0
ARC
  5
1DB
330
1F
100
AcDbEntity
  8
VISIBLE
100
AcDbCircle
 10
436.7313598961467
 20
465.8323874365494
 30
0.0
 40
0.5000000000000071
100
AcDbArc
 50
0.0
 51
90.0
  0
LINE
  5
1DC
330
1F
100
AcDbEntity
  8
VISIBLE
100
AcDbLine
 10
423.7313598961467
 20
466.3323874365494
 30
0.0
 11
436.7313598961467
 21
466.3323874365494
 31
0.0
  0
ARC
  5
1DD
330
1F
100
AcDbEntity
  8
VISIBLE
100
AcDbCircle
 10
161.3438598961467
 20
446.7823874365494
 30
0.0
 40
0.5
100
AcDbArc
 50
0.0
 51
90.0
  0
LINE
  5
1DE
330
1F
100
AcDbEntity
  8
VISIBLE
100
AcDbLine
 10
160.3438598961467
 20
447.2823874365494
 30
0.0
 11
161.3438598961467
 21
447.2823874365494
 31
0.0
  0
ARC
  5
1DF
330
1F
100
AcDbEntity
  8
VISIBLE
100
AcDbCircle
 10
160.3438598961467
 20
446.7823874365494
 30
0.0
 40
0.5
100
AcDbArc
 50
90.0
 51
180.0
  0
LINE
  5
1E0
330
1F
100
AcDbEntity
  8
VISIBLE
100
AcDbLine
 10
159.8438598961467
 20
433.7823874365494
 30
0.0
 11
159.8438598961467
 21
446.7823874365494
 31
0.0
  0
ARC
  5
1E1
330
1F
100
AcDbEntity
  8
VISIBLE
100
AcDbCircle
 10
160.3438598961467
 20
433.7823874365494
 30
0.0
 40
0.5
100
AcDbArc
 50
180.0
 51
270.0
  0
LINE
  5
1E2
330
1F
100
AcDbEntity
  8
VISIBLE
100
AcDbLine
 10
161.3438598961467
 20
433.2823874365494
 30
0.0
 11
160.3438598961467
 21
433.2823874365494
 31
0.0
  0
ARC
  5
1E3
330
1F
100
AcDbEntity
  8
VISIBLE
100
AcDbCircle
 10
161.3438598961467
 20
433.7823874365494
 30
0.0
 40
0.5
100
AcDbArc
 50
270.0
 51
0.0
  0
LINE
  5
1E4
330
1F
100
AcDbEntity
  8
VISIBLE
100
AcDbLine
 10
161.8438598961467
 20
446.7823874365494
 30
0.0
 11
161.8438598961467
 21
433.7823874365494
 31
0.0
  0
ARC
  5
1E5
330
1F
100
AcDbEntity
  8
VISIBLE
100
AcDbCircle
 10
347.5313598961467
 20
465.8323874365494
 30
0.0
 40
0.5
100
AcDbArc
 50
90.0
 51
180.0
  0
LINE
  5
1E6
330
1F
100
AcDbEntity
  8
VISIBLE
100
AcDbLine
 10
347.0313598961467
 20
452.8323874365494
 30
0.0
 11
347.0313598961467
 21
465.8323874365494
 31
0.0
  0
ARC
  5
1E7
330
1F
100
AcDbEntity
  8
VISIBLE
100
AcDbCircle
 10
347.5313598961467
 20
452.8323874365494
 30
0.0
 40
0.5000000000000071
100
AcDbArc
 50
180.0
 51
270.0
  0
LINE
  5
1E8
330
1F
100
AcDbEntity
  8
VISIBLE
100
AcDbLine
 10
360.5313598961467
 20
452.3323874365494
 30
0.0
 11
347.5313598961467
 21
452.3323874365494
 31
0.0
  0
ARC
  5
1E9
330
1F
100
AcDbEntity
  8
VISIBLE
100
AcDbCircle
 10
360.5313598961467
 20
452.8323874365494
 30
0.0
 40
0.5
100
AcDbArc
 50
270.0
 51
0.0
  0
LINE
  5
1EA
330
1F
100
AcDbEntity
  8
VISIBLE
100
AcDbLine
 10
361.0313598961467
 20
465.8323874365494
 30
0.0
 11
361.0313598961467
 21
452.8323874365494
 31
0.0
  0
ARC
  5
1EB
330
1F
100
AcDbEntity
  8
VISIBLE
100
AcDbCircle
 10
360.5313598961467
 20
465.8323874365494
 30
0.0
 40
0.5000000000000071
100
AcDbArc
 50
0.0
 51
90.0
  0
LINE
  5
1EC
330
1F
100
AcDbEntity
  8
VISIBLE
100
AcDbLine
 10
347.5313598961467
 20
466.3323874365494
 30
0.0
 11
360.5313598961467
 21
466.3323874365494
 31
0.0
  0
ARC
  5
1ED
330
1F
100
AcDbEntity
  8
VISIBLE
100
AcDbCircle
 10
204.6563598961467
 20
446.7823874365494
 30
0.0
 40
0.5
100
AcDbArc
 50
90.0
 51
180.0
  0
LINE
  5
1EE
330
1F
100
AcDbEntity
  8
VISIBLE
100
AcDbLine
 10
204.1563598961467
 20
433.7823874365494
 30
0.0
 11
204.1563598961467
 21
446.7823874365494
 31
0.0
  0
ARC
  5
1EF
330
1F
100
AcDbEntity
  8
VISIBLE
100
AcDbCircle
 10
204.6563598961467
 20
433.7823874365494
 30
0.0
 40
0.5
100
AcDbArc
 50
180.0
 51
270.0
  0
LINE
  5
1F0
330
1F
100
AcDbEntity
  8
VISIBLE
100
AcDbLine
 10
217.6563598961467
 20
433.2823874365494
 30
0.0
 11
204.6563598961467
 21
433.2823874365494
 31
0.0
  0
ARC
  5
1F1
330
1F
100
AcDbEntity
  8
VISIBLE
100
AcDbCircle
 10
217.6563598961467
 20
433.7823874365494
 30
0.0
 40
0.5
100
AcDbArc
 50
270.0
 51
0.0
  0
LINE
  5
1F2
330
1F
100
AcDbEntity
  8
VISIBLE
100
AcDbLine
 10
218.1563598961467
 20
446.7823874365494
 30
0.0
 11
218.1563598961467
 21
433.7823874365494
 31
0.0
  0
ARC
  5
1F3
330
1F
100
AcDbEntity
  8
VISIBLE
100
AcDbCircle
 10
217.6563598961467
 20
446.7823874365494
 30
0.0
 40
0.5000000000000071
100
AcDbArc
 50
0.0
 51
90.0
  0
LINE
  5
1F4
330
1F
100
AcDbEntity
  8
VISIBLE
100
AcDbLine
 10
204.6563598961467
 20
447.2823874365494
 30
0.0
 11
217.6563598961467
 21
447.2823874365494
 31
0.0
  0
ARC
  5
1F5
330
1F
100
AcDbEntity
  8
VISIBLE
100
AcDbCircle
 10
366.5813598961468
 20
465.8323874365494
 30
0.0
 40
0.5
100
AcDbArc
 50
90.0
 51
180.0
  0
LINE
  5
1F6
330
1F
100
AcDbEntity
  8
VISIBLE
100
AcDbLine
 10
366.0813598961468
 20
452.8323874365494
 30
0.0
 11
366.0813598961468
 21
465.8323874365494
 31
0.0
  0
ARC
  5
1F7
330
1F
100
AcDbEntity
  8
VISIBLE
100
AcDbCircle
 10
366.5813598961468
 20
452.8323874365494
 30
0.0
 40
0.5000000000000071
100
AcDbArc
 50
180.0
 51
270.0
  0
LINE
  5
1F8
330
1F
100
AcDbEntity
  8
VISIBLE
100
AcDbLine
 10
379.5813598961468
 20
452.3323874365494
 30
0.0
 11
366.5813598961468
 21
452.3323874365494
 31
0.0
  0
ARC
  5
1F9
330
1F
100
AcDbEntity
  8
VISIBLE
100
AcDbCircle
 10
379.5813598961468
 20
452.8323874365494
 30
0.0
 40
0.5
100
AcDbArc
 50
270.0
 51
0.0
  0
LINE
  5
1FA
330
1F
100
AcDbEntity
  8
VISIBLE
100
AcDbLine
 10
380.0813598961468
 20
465.8323874365494
 30
0.0
 11
380.0813598961468
 21
452.8323874365494
 31
0.0
  0
ARC
  5
1FB
330
1F
100
AcDbEntity
  8
VISIBLE
100
AcDbCircle
 10
379.5813598961468
 20
465.8323874365494
 30
0.0
 40
0.5000000000000071
100
AcDbArc
 50
0.0
 51
90.0
  0
LINE
  5
1FC
330
1F
100
AcDbEntity
  8
VISIBLE
100
AcDbLine
 10
366.5813598961468
 20
466.3323874365494
 30
0.0
 11
379.5813598961468
 21
466.3323874365494
 31
0.0
  0
ARC
  5
1FD
330
1F
100
AcDbEntity
  8
VISIBLE
100
AcDbCircle
 10
309.4313598961467
 20
465.8323874365494
 30
0.0
 40
0.5
100
AcDbArc
 50
90.0
 51
180.0
  0
LINE
  5
1FE
330
1F
100
AcDbEntity
  8
VISIBLE
100
AcDbLine
 10
308.9313598961467
 20
452.8323874365494
 30
0.0
 11
308.9313598961467
 21
465.8323874365494
 31
0.0
  0
ARC
  5
1FF
330
1F
100
AcDbEntity
  8
VISIBLE
100
AcDbCircle
 10
309.4313598961467
 20
452.8323874365494
 30
0.0
 40
0.5000000000000071
100
AcDbArc
 50
180.0
 51
270.0
  0
LINE
  5
200
330
1F
100
AcDbEntity
  8
VISIBLE
100
AcDbLine
 10
322.4313598961467
 20
452.3323874365494
 30
0.0
 11
309.4313598961467
 21
452.3323874365494
 31
0.0
  0
ARC
  5
201
330
1F
100
AcDbEntity
  8
VISIBLE
100
AcDbCircle
 10
322.4313598961467
 20
452.8323874365494
 30
0.0
 40
0.5
100
AcDbArc
 50
270.0
 51
0.0
  0
LINE
  5
202
330
1F
100
AcDbEntity
  8
VISIBLE
100
AcDbLine
 10
322.9313598961467
 20
465.8323874365494
 30
0.0
 11
322.9313598961467
 21
452.8323874365494
 31
0.0
  0
ARC
  5
203
330
1F
100
AcDbEntity
  8
VISIBLE
100
AcDbCircle
 10
322.4313598961467
 20
465.8323874365494
 30
0.0
 40
0.5000000000000071
100
AcDbArc
 50
0.0
 51
90.0
  0
LINE
  5
204
330
1F
100
AcDbEntity
  8
VISIBLE
100
AcDbLine
 10
309.4313598961467
 20
466.3323874365494
 30
0.0
 11
322.4313598961467
 21
466.3323874365494
 31
0.0
  0
ARC
  5
205
330
1F
100
AcDbEntity
  8
VISIBLE
100
AcDbCircle
 10
271.3313598961467
 20
465.8323874365494
 30
0.0
 40
0.5
100
AcDbArc
 50
90.0
 51
180.0
  0
LINE
  5
206
330
1F
100
AcDbEntity
  8
VISIBLE
100
AcDbLine
 10
270.8313598961467
 20
452.8323874365494
 30
0.0
 11
270.8313598961467
 21
465.8323874365494
 31
0.0
  0
ARC
  5
207
330
1F
100
AcDbEntity
  8
VISIBLE
100
AcDbCircle
 10
271.3313598961467
 20
452.8323874365494
 30
0.0
 40
0.5000000000000071
100
AcDbArc
 50
180.0
 51
270.0
  0
LINE
  5
208
330
1F
100
AcDbEntity
  8
VISIBLE
100
AcDbLine
 10
284.3313598961467
 20
452.3323874365494
 30
0.0
 11
271.3313598961467
 21
452.3323874365494
 31
0.0
  0
ARC
  5
209
330
1F
100
AcDbEntity
  8
VISIBLE
100
AcDbCircle
 10
284.3313598961467
 20
452.8323874365494
 30
0.0
 40
0.5
100
AcDbArc
 50
270.0
 51
0.0
  0
LINE
  5
20A
330
1F
100
AcDbEntity
  8
VISIBLE
100
AcDbLine
 10
284.8313598961467
 20
465.8323874365494
 30
0.0
 11
284.8313598961467
 21
452.8323874365494
 31
0.0
  0
ARC
  5
20B
330
1F
100
AcDbEntity
  8
VISIBLE
100
AcDbCircle
 10
284.3313598961467
 20
465.8323874365494
 30
0.0
 40
0.5000000000000071
100
AcDbArc
 50
0.0
 51
90.0
  0
LINE
  5
20C
330
1F
100
AcDbEntity
  8
VISIBLE
100
AcDbLine
 10
271.3313598961467
 20
466.3323874365494
 30
0.0
 11
284.3313598961467
 21
466.3323874365494
 31
0.0
  0
ARC
  5
20D
330
1F
100
AcDbEntity
  8
VISIBLE
100
AcDbCircle
 10
328.4813598961467
 20
465.8323874365494
 30
0.0
 40
0.5
100
AcDbArc
 50
90.0
 51
180.0
  0
LINE
  5
20E
330
1F
100
AcDbEntity
  8
VISIBLE
100
AcDbLine
 10
327.9813598961467
 20
452.8323874365494
 30
0.0
 11
327.9813598961467
 21
465.8323874365494
 31
0.0
  0
ARC
  5
20F
330
1F
100
AcDbEntity
  8
VISIBLE
100
AcDbCircle
 10
328.4813598961467
 20
452.8323874365494
 30
0.0
 40
0.5000000000000071
100
AcDbArc
 50
180.0
 51
270.0
  0
LINE
  5
210
330
1F
100
AcDbEntity
  8
VISIBLE
100
AcDbLine
 10
341.4813598961467
 20
452.3323874365494
 30
0.0
 11
328.4813598961467
 21
452.3323874365494
 31
0.0
  0
ARC
  5
211
330
1F
100
AcDbEntity
  8
VISIBLE
100
AcDbCircle
 10
341.4813598961467
 20
452.8323874365494
 30
0.0
 40
0.5
100
AcDbArc
 50
270.0
 51
0.0
  0
LINE
  5
212
330
1F
100
AcDbEntity
  8
VISIBLE
100
AcDbLine
 10
341.9813598961467
 20
465.8323874365494
 30
0.0
 11
341.9813598961467
 21
452.8323874365494
 31
0.0
  0
ARC
  5
213
330
1F
100
AcDbEntity
  8
VISIBLE
100
AcDbCircle
 10
341.4813598961467
 20
465.8323874365494
 30
0.0
 40
0.5000000000000071
100
AcDbArc
 50
0.0
 51
90.0
  0
LINE
  5
214
330
1F
100
AcDbEntity
  8
VISIBLE
100
AcDbLine
 10
328.4813598961467
 20
466.3323874365494
 30
0.0
 11
341.4813598961467
 21
466.3323874365494
 31
0.0
  0
ARC
  5
215
330
1F
100
AcDbEntity
  8
VISIBLE
100
AcDbCircle
 10
303.3813598961467
 20
465.8323874365494
 30
0.0
 40
0.5000000000000071
100
AcDbArc
 50
0.0
 51
90.0
  0
LINE
  5
216
330
1F
100
AcDbEntity
  8
VISIBLE
100
AcDbLine
 10
290.3813598961467
 20
466.3323874365494
 30
0.0
 11
303.3813598961467
 21
466.3323874365494
 31
0.0
  0
ARC
  5
217
330
1F
100
AcDbEntity
  8
VISIBLE
100
AcDbCircle
 10
290.3813598961467
 20
465.8323874365494
 30
0.0
 40
0.5
100
AcDbArc
 50
90.0
 51
180.0
  0
LINE
  5
218
330
1F
100
AcDbEntity
  8
VISIBLE
100
AcDbLine
 10
289.8813598961467
 20
452.8323874365494
 30
0.0
 11
289.8813598961467
 21
465.8323874365494
 31
0.0
  0
ARC
  5
219
330
1F
100
AcDbEntity
  8
VISIBLE
100
AcDbCircle
 10
290.3813598961467
 20
452.8323874365494
 30
0.0
 40
0.5000000000000071
100
AcDbArc
 50
180.0
 51
270.0
  0
LINE
  5
21A
330
1F
100
AcDbEntity
  8
VISIBLE
100
AcDbLine
 10
303.3813598961467
 20
452.3323874365494
 30
0.0
 11
290.3813598961467
 21
452.3323874365494
 31
0.0
  0
ARC
  5
21B
330
1F
100
AcDbEntity
  8
VISIBLE
100
AcDbCircle
 10
303.3813598961467
 20
452.8323874365494
 30
0.0
 40
0.5
100
AcDbArc
 50
270.0
 51
0.0
  0
LINE
  5
21C
330
1F
100
AcDbEntity
  8
VISIBLE
100
AcDbLine
 10
303.8813598961467
 20
465.8323874365494
 30
0.0
 11
303.8813598961467
 21
452.8323874365494
 31
0.0
  0
ARC
  5
21D
330
1F
100
AcDbEntity
  8
VISIBLE
100
AcDbCircle
 10
195.1313598961467
 20
465.8323874365494
 30
0.0
 40
0.5
100
AcDbArc
 50
90.0
 51
180.0
  0
LINE
  5
21E
330
1F
100
AcDbEntity
  8
VISIBLE
100
AcDbLine
 10
194.6313598961467
 20
452.8323874365494
 30
0.0
 11
194.6313598961467
 21
465.8323874365494
 31
0.0
  0
ARC
  5
21F
330
1F
100
AcDbEntity
  8
VISIBLE
100
AcDbCircle
 10
195.1313598961467
 20
452.8323874365494
 30
0.0
 40
0.5
100
AcDbArc
 50
180.0
 51
270.0
  0
LINE
  5
220
330
1F
100
AcDbEntity
  8
VISIBLE
100
AcDbLine
 10
208.1313598961467
 20
452.3323874365494
 30
0.0
 11
195.1313598961467
 21
452.3323874365494
 31
0.0
  0
ARC
  5
221
330
1F
100
AcDbEntity
  8
VISIBLE
100
AcDbCircle
 10
208.1313598961467
 20
452.8323874365494
 30
0.0
 40
0.5
100
AcDbArc
 50
270.0
 51
0.0
  0
LINE
  5
222
330
1F
100
AcDbEntity
  8
VISIBLE
100
AcDbLine
 10
208.6313598961467
 20
465.8323874365494
 30
0.0
 11
208.6313598961467
 21
452.8323874365494
 31
0.0
  0
ARC
  5
223
330
1F
100
AcDbEntity
  8
VISIBLE
100
AcDbCircle
 10
208.1313598961467
 20
465.8323874365494
 30
0.0
 40
0.5
100
AcDbArc
 50
0.0
 51
90.0
  0
LINE
  5
224
330
1F
100
AcDbEntity
  8
VISIBLE
100
AcDbLine
 10
195.1313598961467
 20
466.3323874365494
 30
0.0
 11
208.1313598961467
 21
466.3323874365494
 31
0.0
  0
ARC
  5
225
330
1F
100
AcDbEntity
  8
VISIBLE
100
AcDbCircle
 10
233.2313598961467
 20
465.8323874365494
 30
0.0
 40
0.5
100
AcDbArc
 50
90.0
 51
180.0
  0
LINE
  5
226
330
1F
100
AcDbEntity
  8
VISIBLE
100
AcDbLine
 10
232.7313598961467
 20
452.8323874365494
 30
0.0
 11
232.7313598961467
 21
465.8323874365494
 31
0.0
  0
ARC
  5
227
330
1F
100
AcDbEntity
  8
VISIBLE
100
AcDbCircle
 10
233.2313598961467
 20
452.8323874365494
 30
0.0
 40
0.5000000000000071
100
AcDbArc
 50
180.0
 51
270.0
  0
LINE
  5
228
330
1F
100
AcDbEntity
  8
VISIBLE
100
AcDbLine
 10
246.2313598961467
 20
452.3323874365494
 30
0.0
 11
233.2313598961467
 21
452.3323874365494
 31
0.0
  0
ARC
  5
229
330
1F
100
AcDbEntity
  8
VISIBLE
100
AcDbCircle
 10
246.2313598961467
 20
452.8323874365494
 30
0.0
 40
0.5
100
AcDbArc
 50
270.0
 51
0.0
  0
LINE
  5
22A
330
1F
100
AcDbEntity
  8
VISIBLE
100
AcDbLine
 10
246.7313598961467
 20
465.8323874365494
 30
0.0
 11
246.7313598961467
 21
452.8323874365494
 31
0.0
  0
ARC
  5
22B
330
1F
100
AcDbEntity
  8
VISIBLE
100
AcDbCircle
 10
246.2313598961467
 20
465.8323874365494
 30
0.0
 40
0.5000000000000071
100
AcDbArc
 50
0.0
 51
90.0
  0
LINE
  5
22C
330
1F
100
AcDbEntity
  8
VISIBLE
100
AcDbLine
 10
233.2313598961467
 20
466.3323874365494
 30
0.0
 11
246.2313598961467
 21
466.3323874365494
 31
0.0
  0
ARC
  5
22D
330
1F
100
AcDbEntity
  8
VISIBLE
100
AcDbCircle
 10
252.2813598961467
 20
465.8323874365494
 30
0.0
 40
0.5
100
AcDbArc
 50
90.0
 51
180.0
  0
LINE
  5
22E
330
1F
100
AcDbEntity
  8
VISIBLE
100
AcDbLine
 10
251.7813598961467
 20
452.8323874365494
 30
0.0
 11
251.7813598961467
 21
465.8323874365494
 31
0.0
  0
ARC
  5
22F
330
1F
100
AcDbEntity
  8
VISIBLE
100
AcDbCircle
 10
252.2813598961467
 20
452.8323874365494
 30
0.0
 40
0.5000000000000071
100
AcDbArc
 50
180.0
 51
270.0
  0
LINE
  5
230
330
1F
100
AcDbEntity
  8
VISIBLE
100
AcDbLine
 10
265.2813598961467
 20
452.3323874365494
 30
0.0
 11
252.2813598961467
 21
452.3323874365494
 31
0.0
  0
ARC
  5
231
330
1F
100
AcDbEntity
  8
VISIBLE
100
AcDbCircle
 10
265.2813598961467
 20
452.8323874365494
 30
0.0
 40
0.5
100
AcDbArc
 50
270.0
 51
0.0
  0
LINE
  5
232
330
1F
100
AcDbEntity
  8
VISIBLE
100
AcDbLine
 10
265.7813598961467
 20
465.8323874365494
 30
0.0
 11
265.7813598961467
 21
452.8323874365494
 31
0.0
  0
ARC
  5
233
330
1F
100
AcDbEntity
  8
VISIBLE
100
AcDbCircle
 10
265.2813598961467
 20
465.8323874365494
 30
0.0
 40
0.5000000000000071
100
AcDbArc
 50
0.0
 51
90.0
  0
LINE
  5
234
330
1F
100
AcDbEntity
  8
VISIBLE
100
AcDbLine
 10
252.2813598961467
 20
466.3323874365494
 30
0.0
 11
265.2813598961467
 21
466.3323874365494
 31
0.0
  0
LINE
  5
235
330
1F
100
AcDbEntity
  8
VISIBLE
100
AcDbLine
 10
175.5813598961467
 20
452.8323874365494
 30
0.0
 11
175.5813598961467
 21
465.8323874365494
 31
0.0
  0
ARC
  5
236
330
1F
100
AcDbEntity
  8
VISIBLE
100
AcDbCircle
 10
176.0813598961467
 20
452.8323874365494
 30
0.0
 40
0.5
100
AcDbArc
 50
180.0
 51
270.0
  0
LINE
  5
237
330
1F
100
AcDbEntity
  8
VISIBLE
100
AcDbLine
 10
189.0813598961467
 20
452.3323874365494
 30
0.0
 11
176.0813598961467
 21
452.3323874365494
 31
0.0
  0
ARC
  5
238
330
1F
100
AcDbEntity
  8
VISIBLE
100
AcDbCircle
 10
189.0813598961467
 20
452.8323874365494
 30
0.0
 40
0.5
100
AcDbArc
 50
270.0
 51
0.0
  0
LINE
  5
239
330
1F
100
AcDbEntity
  8
VISIBLE
100
AcDbLine
 10
189.5813598961467
 20
465.8323874365494
 30
0.0
 11
189.5813598961467
 21
452.8323874365494
 31
0.0
  0
ARC
  5
23A
330
1F
100
AcDbEntity
  8
VISIBLE
100
AcDbCircle
 10
189.0813598961467
 20
465.8323874365494
 30
0.0
 40
0.5
100
AcDbArc
 50
0.0
 51
90.0
  0
LINE
  5
23B
330
1F
100
AcDbEntity
  8
VISIBLE
100
AcDbLine
 10
176.0813598961467
 20
466.3323874365494
 30
0.0
 11
189.0813598961467
 21
466.3323874365494
 31
0.0
  0
ARC
  5
23C
330
1F
100
AcDbEntity
  8
VISIBLE
100
AcDbCircle
 10
176.0813598961467
 20
465.8323874365494
 30
0.0
 40
0.5
100
AcDbArc
 50
90.0
 51
180.0
  0
ARC
  5
23D
330
1F
100
AcDbEntity
  8
VISIBLE
100
AcDbCircle
 10
214.1813598961467
 20
465.8323874365494
 30
0.0
 40
0.5
100
AcDbArc
 50
90.0
 51
180.0
  0
LINE
  5
23E
330
1F
100
AcDbEntity
  8
VISIBLE
100
AcDbLine
 10
213.6813598961467
 20
452.8323874365494
 30
0.0
 11
213.6813598961467
 21
465.8323874365494
 31
0.0
  0
ARC
  5
23F
330
1F
100
AcDbEntity
  8
VISIBLE
100
AcDbCircle
 10
214.1813598961467
 20
452.8323874365494
 30
0.0
 40
0.5
100
AcDbArc
 50
180.0
 51
270.0
  0
LINE
  5
240
330
1F
100
AcDbEntity
  8
VISIBLE
100
AcDbLine
 10
227.1813598961467
 20
452.3323874365494
 30
0.0
 11
214.1813598961467
 21
452.3323874365494
 31
0.0
  0
ARC
  5
241
330
1F
100
AcDbEntity
  8
VISIBLE
100
AcDbCircle
 10
227.1813598961467
 20
452.8323874365494
 30
0.0
 40
0.5
100
AcDbArc
 50
270.0
 51
0.0
  0
LINE
  5
242
330
1F
100
AcDbEntity
  8
VISIBLE
100
AcDbLine
 10
227.6813598961467
 20
465.8323874365494
 30
0.0
 11
227.6813598961467
 21
452.8323874365494
 31
0.0
  0
ARC
  5
243
330
1F
100
AcDbEntity
  8
VISIBLE
100
AcDbCircle
 10
227.1813598961467
 20
465.8323874365494
 30
0.0
 40
0.5000000000000071
100
AcDbArc
 50
0.0
 51
90.0
  0
LINE
  5
244
330
1F
100
AcDbEntity
  8
VISIBLE
100
AcDbLine
 10
214.1813598961467
 20
466.3323874365494
 30
0.0
 11
227.1813598961467
 21
466.3323874365494
 31
0.0
  0
ARC
  5
245
330
1F
100
AcDbEntity
  8
VISIBLE
100
AcDbCircle
 10
137.9813598961467
 20
465.8323874365494
 30
0.0
 40
0.5
100
AcDbArc
 50
90.0
 51
180.0
  0
LINE
  5
246
330
1F
100
AcDbEntity
  8
VISIBLE
100
AcDbLine
 10
137.4813598961467
 20
452.8323874365494
 30
0.0
 11
137.4813598961467
 21
465.8323874365494
 31
0.0
  0
ARC
  5
247
330
1F
100
AcDbEntity
  8
VISIBLE
100
AcDbCircle
 10
137.9813598961467
 20
452.8323874365494
 30
0.0
 40
0.5
100
AcDbArc
 50
180.0
 51
270.0
  0
LINE
  5
248
330
1F
100
AcDbEntity
  8
VISIBLE
100
AcDbLine
 10
150.9813598961467
 20
452.3323874365494
 30
0.0
 11
137.9813598961467
 21
452.3323874365494
 31
0.0
  0
ARC
  5
249
330
1F
100
AcDbEntity
  8
VISIBLE
100
AcDbCircle
 10
150.9813598961467
 20
452.8323874365494
 30
0.0
 40
0.5
100
AcDbArc
 50
270.0
 51
0.0
  0
LINE
  5
24A
330
1F
100
AcDbEntity
  8
VISIBLE
100
AcDbLine
 10
151.4813598961467
 20
465.8323874365494
 30
0.0
 11
151.4813598961467
 21
452.8323874365494
 31
0.0
  0
ARC
  5
24B
330
1F
100
AcDbEntity
  8
VISIBLE
100
AcDbCircle
 10
150.9813598961467
 20
465.8323874365494
 30
0.0
 40
0.5
100
AcDbArc
 50
0.0
 51
90.0
  0
LINE
  5
24C
330
1F
100
AcDbEntity
  8
VISIBLE
100
AcDbLine
 10
137.9813598961467
 20
466.3323874365494
 30
0.0
 11
150.9813598961467
 21
466.3323874365494
 31
0.0
  0
ARC
  5
24D
330
1F
100
AcDbEntity
  8
VISIBLE
100
AcDbCircle
 10
170.0313598961467
 20
465.8323874365494
 30
0.0
 40
0.5
100
AcDbArc
 50
0.0
 51
90.0
  0
LINE
  5
24E
330
1F
100
AcDbEntity
  8
VISIBLE
100
AcDbLine
 10
157.0313598961467
 20
466.3323874365494
 30
0.0
 11
170.0313598961467
 21
466.3323874365494
 31
0.0
  0
ARC
  5
24F
330
1F
100
AcDbEntity
  8
VISIBLE
100
AcDbCircle
 10
157.0313598961467
 20
465.8323874365494
 30
0.0
 40
0.5
100
AcDbArc
 50
90.0
 51
180.0
  0
LINE
  5
250
330
1F
100
AcDbEntity
  8
VISIBLE
100
AcDbLine
 10
156.5313598961467
 20
452.8323874365494
 30
0.0
 11
156.5313598961467
 21
465.8323874365494
 31
0.0
  0
ARC
  5
251
330
1F
100
AcDbEntity
  8
VISIBLE
100
AcDbCircle
 10
157.0313598961467
 20
452.8323874365494
 30
0.0
 40
0.5
100
AcDbArc
 50
180.0
 51
270.0
  0
LINE
  5
252
330
1F
100
AcDbEntity
  8
VISIBLE
100
AcDbLine
 10
170.0313598961467
 20
452.3323874365494
 30
0.0
 11
157.0313598961467
 21
452.3323874365494
 31
0.0
  0
ARC
  5
253
330
1F
100
AcDbEntity
  8
VISIBLE
100
AcDbCircle
 10
170.0313598961467
 20
452.8323874365494
 30
0.0
 40
0.5
100
AcDbArc
 50
270.0
 51
0.0
  0
LINE
  5
254
330
1F
100
AcDbEntity
  8
VISIBLE
100
AcDbLine
 10
170.5313598961467
 20
465.8323874365494
 30
0.0
 11
170.5313598961467
 21
452.8323874365494
 31
0.0
  0
ARC
  5
255
330
1F
100
AcDbEntity
  8
VISIBLE
100
AcDbCircle
 10
396.0876098961467
 20
408.6823874365493
 30
0.0
 40
0.5
100
AcDbArc
 50
90.0
 51
180.0
  0
LINE
  5
256
330
1F
100
AcDbEntity
  8
VISIBLE
100
AcDbLine
 10
395.5876098961467
 20
395.6823874365493
 30
0.0
 11
395.5876098961467
 21
408.6823874365493
 31
0.0
  0
ARC
  5
257
330
1F
100
AcDbEntity
  8
VISIBLE
100
AcDbCircle
 10
396.0876098961467
 20
395.6823874365493
 30
0.0
 40
0.5000000000000071
100
AcDbArc
 50
180.0
 51
270.0
  0
LINE
  5
258
330
1F
100
AcDbEntity
  8
VISIBLE
100
AcDbLine
 10
397.0876098961467
 20
395.1823874365493
 30
0.0
 11
396.0876098961467
 21
395.1823874365493
 31
0.0
  0
ARC
  5
259
330
1F
100
AcDbEntity
  8
VISIBLE
100
AcDbCircle
 10
397.0876098961467
 20
395.6823874365493
 30
0.0
 40
0.5
100
AcDbArc
 50
270.0
 51
0.0
  0
LINE
  5
25A
330
1F
100
AcDbEntity
  8
VISIBLE
100
AcDbLine
 10
397.5876098961467
 20
408.6823874365493
 30
0.0
 11
397.5876098961467
 21
395.6823874365493
 31
0.0
  0
ARC
  5
25B
330
1F
100
AcDbEntity
  8
VISIBLE
100
AcDbCircle
 10
397.0876098961467
 20
408.6823874365493
 30
0.0
 40
0.5000000000000071
100
AcDbArc
 50
0.0
 51
90.0
  0
LINE
  5
25C
330
1F
100
AcDbEntity
  8
VISIBLE
100
AcDbLine
 10
396.0876098961467
 20
409.1823874365493
 30
0.0
 11
397.0876098961467
 21
409.1823874365493
 31
0.0
  0
ARC
  5
25D
330
1F
100
AcDbEntity
  8
VISIBLE
100
AcDbCircle
 10
372.8876098961467
 20
408.6823874365493
 30
0.0
 40
0.5
100
AcDbArc
 50
90.0
 51
180.0
  0
LINE
  5
25E
330
1F
100
AcDbEntity
  8
VISIBLE
100
AcDbLine
 10
372.3876098961467
 20
395.6823874365493
 30
0.0
 11
372.3876098961467
 21
408.6823874365493
 31
0.0
  0
ARC
  5
25F
330
1F
100
AcDbEntity
  8
VISIBLE
100
AcDbCircle
 10
372.8876098961467
 20
395.6823874365493
 30
0.0
 40
0.5000000000000071
100
AcDbArc
 50
180.0
 51
270.0
  0
LINE
  5
260
330
1F
100
AcDbEntity
  8
VISIBLE
100
AcDbLine
 10
373.8876098961467
 20
395.1823874365493
 30
0.0
 11
372.8876098961467
 21
395.1823874365493
 31
0.0
  0
ARC
  5
261
330
1F
100
AcDbEntity
  8
VISIBLE
100
AcDbCircle
 10
373.8876098961467
 20
395.6823874365493
 30
0.0
 40
0.5
100
AcDbArc
 50
270.0
 51
0.0
  0
LINE
  5
262
330
1F
100
AcDbEntity
  8
VISIBLE
100
AcDbLine
 10
374.3876098961467
 20
408.6823874365493
 30
0.0
 11
374.3876098961467
 21
395.6823874365493
 31
0.0
  0
ARC
  5
263
330
1F
100
AcDbEntity
  8
VISIBLE
100
AcDbCircle
 10
373.8876098961467
 20
408.6823874365493
 30
0.0
 40
0.5000000000000071
100
AcDbArc
 50
0.0
 51
90.0
  0
LINE
  5
264
330
1F
100
AcDbEntity
  8
VISIBLE
100
AcDbLine
 10
372.8876098961467
 20
409.1823874365493
 30
0.0
 11
373.8876098961467
 21
409.1823874365493
 31
0.0
  0
ARC
  5
265
330
1F
100
AcDbEntity
  8
VISIBLE
100
AcDbCircle
 10
404.6813598961467
 20
408.6823874365493
 30
0.0
 40
0.5
100
AcDbArc
 50
90.0
 51
180.0
  0
LINE
  5
266
330
1F
100
AcDbEntity
  8
VISIBLE
100
AcDbLine
 10
404.1813598961467
 20
395.6823874365493
 30
0.0
 11
404.1813598961467
 21
408.6823874365493
 31
0.0
  0
ARC
  5
267
330
1F
100
AcDbEntity
  8
VISIBLE
100
AcDbCircle
 10
404.6813598961467
 20
395.6823874365493
 30
0.0
 40
0.5000000000000071
100
AcDbArc
 50
180.0
 51
270.0
  0
LINE
  5
268
330
1F
100
AcDbEntity
  8
VISIBLE
100
AcDbLine
 10
417.6813598961468
 20
395.1823874365493
 30
0.0
 11
404.6813598961467
 21
395.1823874365493
 31
0.0
  0
ARC
  5
269
330
1F
100
AcDbEntity
  8
VISIBLE
100
AcDbCircle
 10
417.6813598961468
 20
395.6823874365493
 30
0.0
 40
0.5
100
AcDbArc
 50
270.0
 51
0.0
  0
LINE
  5
26A
330
1F
100
AcDbEntity
  8
VISIBLE
100
AcDbLine
 10
418.1813598961468
 20
408.6823874365493
 30
0.0
 11
418.1813598961468
 21
395.6823874365493
 31
0.0
  0
ARC
  5
26B
330
1F
100
AcDbEntity
  8
VISIBLE
100
AcDbCircle
 10
417.6813598961468
 20
408.6823874365493
 30
0.0
 40
0.5000000000000071
100
AcDbArc
 50
0.0
 51
90.0
  0
LINE
  5
26C
330
1F
100
AcDbEntity
  8
VISIBLE
100
AcDbLine
 10
404.6813598961467
 20
409.1823874365493
 30
0.0
 11
417.6813598961468
 21
409.1823874365493
 31
0.0
  0
ARC
  5
26D
330
1F
100
AcDbEntity
  8
VISIBLE
100
AcDbCircle
 10
423.7313598961467
 20
408.6823874365493
 30
0.0
 40
0.5
100
AcDbArc
 50
90.0
 51
180.0
  0
LINE
  5
26E
330
1F
100
AcDbEntity
  8
VISIBLE
100
AcDbLine
 10
423.2313598961467
 20
395.6823874365493
 30
0.0
 11
423.2313598961467
 21
408.6823874365493
 31
0.0
  0
ARC
  5
26F
330
1F
100
AcDbEntity
  8
VISIBLE
100
AcDbCircle
 10
423.7313598961467
 20
395.6823874365493
 30
0.0
 40
0.5000000000000071
100
AcDbArc
 50
180.0
 51
270.0
  0
LINE
  5
270
330
1F
100
AcDbEntity
  8
VISIBLE
100
AcDbLine
 10
436.7313598961467
 20
395.1823874365493
 30
0.0
 11
423.7313598961467
 21
395.1823874365493
 31
0.0
  0
ARC
  5
271
330
1F
100
AcDbEntity
  8
VISIBLE
100
AcDbCircle
 10
436.7313598961467
 20
395.6823874365493
 30
0.0
 40
0.5
100
AcDbArc
 50
270.0
 51
0.0
  0
LINE
  5
272
330
1F
100
AcDbEntity
  8
VISIBLE
100
AcDbLine
 10
437.2313598961467
 20
408.6823874365493
 30
0.0
 11
437.2313598961467
 21
395.6823874365493
 31
0.0
  0
ARC
  5
273
330
1F
100
AcDbEntity
  8
VISIBLE
100
AcDbCircle
 10
436.7313598961467
 20
408.6823874365493
 30
0.0
 40
0.5000000000000071
100
AcDbArc
 50
0.0
 51
90.0
  0
LINE
  5
274
330
1F
100
AcDbEntity
  8
VISIBLE
100
AcDbLine
 10
423.7313598961467
 20
409.1823874365493
 30
0.0
 11
436.7313598961467
 21
409.1823874365493
 31
0.0
  0
ARC
  5
275
330
1F
100
AcDbEntity
  8
VISIBLE
100
AcDbCircle
 10
257.0438598961467
 20
408.6823874365493
 30
0.0
 40
0.5
100
AcDbArc
 50
90.0
 51
180.0
  0
LINE
  5
276
330
1F
100
AcDbEntity
  8
VISIBLE
100
AcDbLine
 10
256.5438598961467
 20
395.6823874365493
 30
0.0
 11
256.5438598961467
 21
408.6823874365493
 31
0.0
  0
ARC
  5
277
330
1F
100
AcDbEntity
  8
VISIBLE
100
AcDbCircle
 10
257.0438598961467
 20
395.6823874365493
 30
0.0
 40
0.5000000000000071
100
AcDbArc
 50
180.0
 51
270.0
  0
LINE
  5
278
330
1F
100
AcDbEntity
  8
VISIBLE
100
AcDbLine
 10
270.0438598961467
 20
395.1823874365493
 30
0.0
 11
257.0438598961467
 21
395.1823874365493
 31
0.0
  0
ARC
  5
279
330
1F
100
AcDbEntity
  8
VISIBLE
100
AcDbCircle
 10
270.0438598961467
 20
395.6823874365493
 30
0.0
 40
0.5
100
AcDbArc
 50
270.0
 51
0.0
  0
LINE
  5
27A
330
1F
100
AcDbEntity
  8
VISIBLE
100
AcDbLine
 10
270.5438598961467
 20
408.6823874365493
 30
0.0
 11
270.5438598961467
 21
395.6823874365493
 31
0.0
  0
ARC
  5
27B
330
1F
100
AcDbEntity
  8
VISIBLE
100
AcDbCircle
 10
270.0438598961467
 20
408.6823874365493
 30
0.0
 40
0.5000000000000071
100
AcDbArc
 50
0.0
 51
90.0
  0
LINE
  5
27C
330
1F
100
AcDbEntity
  8
VISIBLE
100
AcDbLine
 10
257.0438598961467
 20
409.1823874365493
 30
0.0
 11
270.0438598961467
 21
409.1823874365493
 31
0.0
  0
ARC
  5
27D
330
1F
100
AcDbEntity
  8
VISIBLE
100
AcDbCircle
 10
295.1438598961467
 20
408.6823874365493
 30
0.0
 40
0.5
100
AcDbArc
 50
90.0
 51
180.0
  0
LINE
  5
27E
330
1F
100
AcDbEntity
  8
VISIBLE
100
AcDbLine
 10
294.6438598961467
 20
395.6823874365493
 30
0.0
 11
294.6438598961467
 21
408.6823874365493
 31
0.0
  0
ARC
  5
27F
330
1F
100
AcDbEntity
  8
VISIBLE
100
AcDbCircle
 10
295.1438598961467
 20
395.6823874365493
 30
0.0
 40
0.5000000000000071
100
AcDbArc
 50
180.0
 51
270.0
  0
LINE
  5
280
330
1F
100
AcDbEntity
  8
VISIBLE
100
AcDbLine
 10
308.1438598961467
 20
395.1823874365493
 30
0.0
 11
295.1438598961467
 21
395.1823874365493
 31
0.0
  0
ARC
  5
281
330
1F
100
AcDbEntity
  8
VISIBLE
100
AcDbCircle
 10
308.1438598961467
 20
395.6823874365493
 30
0.0
 40
0.5
100
AcDbArc
 50
270.0
 51
0.0
  0
LINE
  5
282
330
1F
100
AcDbEntity
  8
VISIBLE
100
AcDbLine
 10
308.6438598961467
 20
408.6823874365493
 30
0.0
 11
308.6438598961467
 21
395.6823874365493
 31
0.0
  0
ARC
  5
283
330
1F
100
AcDbEntity
  8
VISIBLE
100
AcDbCircle
 10
308.1438598961467
 20
408.6823874365493
 30
0.0
 40
0.5000000000000071
100
AcDbArc
 50
0.0
 51
90.0
  0
LINE
  5
284
330
1F
100
AcDbEntity
  8
VISIBLE
100
AcDbLine
 10
295.1438598961467
 20
409.1823874365493
 30
0.0
 11
308.1438598961467
 21
409.1823874365493
 31
0.0
  0
ARC
  5
285
330
1F
100
AcDbEntity
  8
VISIBLE
100
AcDbCircle
 10
333.2438598961467
 20
408.6823874365493
 30
0.0
 40
0.5
100
AcDbArc
 50
90.0
 51
180.0
  0
LINE
  5
286
330
1F
100
AcDbEntity
  8
VISIBLE
100
AcDbLine
 10
332.7438598961467
 20
395.6823874365493
 30
0.0
 11
332.7438598961467
 21
408.6823874365493
 31
0.0
  0
ARC
  5
287
330
1F
100
AcDbEntity
  8
VISIBLE
100
AcDbCircle
 10
333.2438598961467
 20
395.6823874365493
 30
0.0
 40
0.5000000000000071
100
AcDbArc
 50
180.0
 51
270.0
  0
LINE
  5
288
330
1F
100
AcDbEntity
  8
VISIBLE
100
AcDbLine
 10
346.2438598961467
 20
395.1823874365493
 30
0.0
 11
333.2438598961467
 21
395.1823874365493
 31
0.0
  0
ARC
  5
289
330
1F
100
AcDbEntity
  8
VISIBLE
100
AcDbCircle
 10
346.2438598961467
 20
395.6823874365493
 30
0.0
 40
0.5
100
AcDbArc
 50
270.0
 51
0.0
  0
LINE
  5
28A
330
1F
100
AcDbEntity
  8
VISIBLE
100
AcDbLine
 10
346.7438598961467
 20
408.6823874365493
 30
0.0
 11
346.7438598961467
 21
395.6823874365493
 31
0.0
  0
ARC
  5
28B
330
1F
100
AcDbEntity
  8
VISIBLE
100
AcDbCircle
 10
346.2438598961467
 20
408.6823874365493
 30
0.0
 40
0.5000000000000071
100
AcDbArc
 50
0.0
 51
90.0
  0
LINE
  5
28C
330
1F
100
AcDbEntity
  8
VISIBLE
100
AcDbLine
 10
333.2438598961467
 20
409.1823874365493
 30
0.0
 11
346.2438598961467
 21
409.1823874365493
 31
0.0
  0
ARC
  5
28D
330
1F
100
AcDbEntity
  8
VISIBLE
100
AcDbCircle
 10
327.1938598961467
 20
408.6823874365493
 30
0.0
 40
0.5000000000000071
100
AcDbArc
 50
0.0
 51
90.0
  0
LINE
  5
28E
330
1F
100
AcDbEntity
  8
VISIBLE
100
AcDbLine
 10
314.1938598961467
 20
409.1823874365493
 30
0.0
 11
327.1938598961467
 21
409.1823874365493
 31
0.0
  0
ARC
  5
28F
330
1F
100
AcDbEntity
  8
VISIBLE
100
AcDbCircle
 10
314.1938598961467
 20
408.6823874365493
 30
0.0
 40
0.5
100
AcDbArc
 50
90.0
 51
180.0
  0
LINE
  5
290
330
1F
100
AcDbEntity
  8
VISIBLE
100
AcDbLine
 10
313.6938598961467
 20
395.6823874365493
 30
0.0
 11
313.6938598961467
 21
408.6823874365493
 31
0.0
  0
ARC
  5
291
330
1F
100
AcDbEntity
  8
VISIBLE
100
AcDbCircle
 10
314.1938598961467
 20
395.6823874365493
 30
0.0
 40
0.5000000000000071
100
AcDbArc
 50
180.0
 51
270.0
  0
LINE
  5
292
330
1F
100
AcDbEntity
  8
VISIBLE
100
AcDbLine
 10
327.1938598961467
 20
395.1823874365493
 30
0.0
 11
314.1938598961467
 21
395.1823874365493
 31
0.0
  0
ARC
  5
293
330
1F
100
AcDbEntity
  8
VISIBLE
100
AcDbCircle
 10
327.1938598961467
 20
395.6823874365493
 30
0.0
 40
0.5
100
AcDbArc
 50
270.0
 51
0.0
  0
LINE
  5
294
330
1F
100
AcDbEntity
  8
VISIBLE
100
AcDbLine
 10
327.6938598961467
 20
408.6823874365493
 30
0.0
 11
327.6938598961467
 21
395.6823874365493
 31
0.0
  0
LINE
  5
295
330
1F
100
AcDbEntity
  8
VISIBLE
100
AcDbLine
 10
377.9876098961468
 20
395.6823874365493
 30
0.0
 11
377.9876098961468
 21
408.6823874365493
 31
0.0
  0
ARC
  5
296
330
1F
100
AcDbEntity
  8
VISIBLE
100
AcDbCircle
 10
378.4876098961468
 20
395.6823874365493
 30
0.0
 40
0.5000000000000071
100
AcDbArc
 50
180.0
 51
270.0
  0
LINE
  5
297
330
1F
100
AcDbEntity
  8
VISIBLE
100
AcDbLine
 10
391.4876098961468
 20
395.1823874365493
 30
0.0
 11
378.4876098961468
 21
395.1823874365493
 31
0.0
  0
ARC
  5
298
330
1F
100
AcDbEntity
  8
VISIBLE
100
AcDbCircle
 10
391.4876098961468
 20
395.6823874365493
 30
0.0
 40
0.5
100
AcDbArc
 50
270.0
 51
0.0
  0
LINE
  5
299
330
1F
100
AcDbEntity
  8
VISIBLE
100
AcDbLine
 10
391.9876098961468
 20
408.6823874365493
 30
0.0
 11
391.9876098961468
 21
395.6823874365493
 31
0.0
  0
ARC
  5
29A
330
1F
100
AcDbEntity
  8
VISIBLE
100
AcDbCircle
 10
391.4876098961468
 20
408.6823874365493
 30
0.0
 40
0.5000000000000071
100
AcDbArc
 50
0.0
 51
90.0
  0
LINE
  5
29B
330
1F
100
AcDbEntity
  8
VISIBLE
100
AcDbLine
 10
378.4876098961468
 20
409.1823874365493
 30
0.0
 11
391.4876098961468
 21
409.1823874365493
 31
0.0
  0
ARC
  5
29C
330
1F
100
AcDbEntity
  8
VISIBLE
100
AcDbCircle
 10
378.4876098961468
 20
408.6823874365493
 30
0.0
 40
0.5
100
AcDbArc
 50
90.0
 51
180.0
  0
ARC
  5
29D
330
1F
100
AcDbEntity
  8
VISIBLE
100
AcDbCircle
 10
237.9938598961467
 20
408.6823874365493
 30
0.0
 40
0.5
100
AcDbArc
 50
90.0
 51
180.0
  0
LINE
  5
29E
330
1F
100
AcDbEntity
  8
VISIBLE
100
AcDbLine
 10
237.4938598961467
 20
395.6823874365493
 30
0.0
 11
237.4938598961467
 21
408.6823874365493
 31
0.0
  0
ARC
  5
29F
330
1F
100
AcDbEntity
  8
VISIBLE
100
AcDbCircle
 10
237.9938598961467
 20
395.6823874365493
 30
0.0
 40
0.5000000000000071
100
AcDbArc
 50
180.0
 51
270.0
  0
LINE
  5
2A0
330
1F
100
AcDbEntity
  8
VISIBLE
100
AcDbLine
 10
250.9938598961467
 20
395.1823874365493
 30
0.0
 11
237.9938598961467
 21
395.1823874365493
 31
0.0
  0
ARC
  5
2A1
330
1F
100
AcDbEntity
  8
VISIBLE
100
AcDbCircle
 10
250.9938598961467
 20
395.6823874365493
 30
0.0
 40
0.5
100
AcDbArc
 50
270.0
 51
0.0
  0
LINE
  5
2A2
330
1F
100
AcDbEntity
  8
VISIBLE
100
AcDbLine
 10
251.4938598961467
 20
408.6823874365493
 30
0.0
 11
251.4938598961467
 21
395.6823874365493
 31
0.0
  0
ARC
  5
2A3
330
1F
100
AcDbEntity
  8
VISIBLE
100
AcDbCircle
 10
250.9938598961467
 20
408.6823874365493
 30
0.0
 40
0.5000000000000071
100
AcDbArc
 50
0.0
 51
90.0
  0
LINE
  5
2A4
330
1F
100
AcDbEntity
  8
VISIBLE
100
AcDbLine
 10
237.9938598961467
 20
409.1823874365493
 30
0.0
 11
250.9938598961467
 21
409.1823874365493
 31
0.0
  0
ARC
  5
2A5
330
1F
100
AcDbEntity
  8
VISIBLE
100
AcDbCircle
 10
352.2938598961467
 20
408.6823874365493
 30
0.0
 40
0.5
100
AcDbArc
 50
90.0
 51
180.0
  0
LINE
  5
2A6
330
1F
100
AcDbEntity
  8
VISIBLE
100
AcDbLine
 10
351.7938598961467
 20
395.6823874365493
 30
0.0
 11
351.7938598961467
 21
408.6823874365493
 31
0.0
  0
ARC
  5
2A7
330
1F
100
AcDbEntity
  8
VISIBLE
100
AcDbCircle
 10
352.2938598961467
 20
395.6823874365493
 30
0.0
 40
0.5000000000000071
100
AcDbArc
 50
180.0
 51
270.0
  0
LINE
  5
2A8
330
1F
100
AcDbEntity
  8
VISIBLE
100
AcDbLine
 10
365.2938598961467
 20
395.1823874365493
 30
0.0
 11
352.2938598961467
 21
395.1823874365493
 31
0.0
  0
ARC
  5
2A9
330
1F
100
AcDbEntity
  8
VISIBLE
100
AcDbCircle
 10
365.2938598961467
 20
395.6823874365493
 30
0.0
 40
0.5
100
AcDbArc
 50
270.0
 51
0.0
  0
LINE
  5
2AA
330
1F
100
AcDbEntity
  8
VISIBLE
100
AcDbLine
 10
365.7938598961467
 20
408.6823874365493
 30
0.0
 11
365.7938598961467
 21
395.6823874365493
 31
0.0
  0
ARC
  5
2AB
330
1F
100
AcDbEntity
  8
VISIBLE
100
AcDbCircle
 10
365.2938598961467
 20
408.6823874365493
 30
0.0
 40
0.5000000000000071
100
AcDbArc
 50
0.0
 51
90.0
  0
LINE
  5
2AC
330
1F
100
AcDbEntity
  8
VISIBLE
100
AcDbLine
 10
352.2938598961467
 20
409.1823874365493
 30
0.0
 11
365.2938598961467
 21
409.1823874365493
 31
0.0
  0
ARC
  5
2AD
330
1F
100
AcDbEntity
  8
VISIBLE
100
AcDbCircle
 10
276.0938598961467
 20
408.6823874365493
 30
0.0
 40
0.5
100
AcDbArc
 50
90.0
 51
180.0
  0
LINE
  5
2AE
330
1F
100
AcDbEntity
  8
VISIBLE
100
AcDbLine
 10
275.5938598961467
 20
395.6823874365493
 30
0.0
 11
275.5938598961467
 21
408.6823874365493
 31
0.0
  0
ARC
  5
2AF
330
1F
100
AcDbEntity
  8
VISIBLE
100
AcDbCircle
 10
276.0938598961467
 20
395.6823874365493
 30
0.0
 40
0.5000000000000071
100
AcDbArc
 50
180.0
 51
270.0
  0
LINE
  5
2B0
330
1F
100
AcDbEntity
  8
VISIBLE
100
AcDbLine
 10
289.0938598961467
 20
395.1823874365493
 30
0.0
 11
276.0938598961467
 21
395.1823874365493
 31
0.0
  0
ARC
  5
2B1
330
1F
100
AcDbEntity
  8
VISIBLE
100
AcDbCircle
 10
289.0938598961467
 20
395.6823874365493
 30
0.0
 40
0.5
100
AcDbArc
 50
270.0
 51
0.0
  0
LINE
  5
2B2
330
1F
100
AcDbEntity
  8
VISIBLE
100
AcDbLine
 10
289.5938598961467
 20
408.6823874365493
 30
0.0
 11
289.5938598961467
 21
395.6823874365493
 31
0.0
  0
ARC
  5
2B3
330
1F
100
AcDbEntity
  8
VISIBLE
100
AcDbCircle
 10
289.0938598961467
 20
408.6823874365493
 30
0.0
 40
0.5000000000000071
100
AcDbArc
 50
0.0
 51
90.0
  0
LINE
  5
2B4
330
1F
100
AcDbEntity
  8
VISIBLE
100
AcDbLine
 10
276.0938598961467
 20
409.1823874365493
 30
0.0
 11
289.0938598961467
 21
409.1823874365493
 31
0.0
  0
LINE
  5
2B5
330
1F
100
AcDbEntity
  8
VISIBLE
100
AcDbLine
 10
218.4438598961467
 20
395.6823874365493
 30
0.0
 11
218.4438598961467
 21
408.6823874365493
 31
0.0
  0
ARC
  5
2B6
330
1F
100
AcDbEntity
  8
VISIBLE
100
AcDbCircle
 10
218.9438598961467
 20
395.6823874365493
 30
0.0
 40
0.5000000000000071
100
AcDbArc
 50
180.0
 51
270.0
  0
LINE
  5
2B7
330
1F
100
AcDbEntity
  8
VISIBLE
100
AcDbLine
 10
231.9438598961467
 20
395.1823874365493
 30
0.0
 11
218.9438598961467
 21
395.1823874365493
 31
0.0
  0
ARC
  5
2B8
330
1F
100
AcDbEntity
  8
VISIBLE
100
AcDbCircle
 10
231.9438598961467
 20
395.6823874365493
 30
0.0
 40
0.5
100
AcDbArc
 50
270.0
 51
0.0
  0
LINE
  5
2B9
330
1F
100
AcDbEntity
  8
VISIBLE
100
AcDbLine
 10
232.4438598961467
 20
408.6823874365493
 30
0.0
 11
232.4438598961467
 21
395.6823874365493
 31
0.0
  0
ARC
  5
2BA
330
1F
100
AcDbEntity
  8
VISIBLE
100
AcDbCircle
 10
231.9438598961467
 20
408.6823874365493
 30
0.0
 40
0.5000000000000071
100
AcDbArc
 50
0.0
 51
90.0
  0
LINE
  5
2BB
330
1F
100
AcDbEntity
  8
VISIBLE
100
AcDbLine
 10
218.9438598961467
 20
409.1823874365493
 30
0.0
 11
231.9438598961467
 21
409.1823874365493
 31
0.0
  0
ARC
  5
2BC
330
1F
100
AcDbEntity
  8
VISIBLE
100
AcDbCircle
 10
218.9438598961467
 20
408.6823874365493
 30
0.0
 40
0.5
100
AcDbArc
 50
90.0
 51
180.0
  0
ARC
  5
2BD
330
1F
100
AcDbEntity
  8
VISIBLE
100
AcDbCircle
 10
165.3256098961467
 20
407.6823874365493
 30
0.0
 40
0.5
100
AcDbArc
 50
90.0
 51
180.0
  0
LINE
  5
2BE
330
1F
100
AcDbEntity
  8
VISIBLE
100
AcDbLine
 10
164.8256098961467
 20
393.6823874365493
 30
0.0
 11
164.8256098961467
 21
407.6823874365493
 31
0.0
  0
ARC
  5
2BF
330
1F
100
AcDbEntity
  8
VISIBLE
100
AcDbCircle
 10
165.3256098961467
 20
393.6823874365493
 30
0.0
 40
0.5
100
AcDbArc
 50
180.0
 51
270.0
  0
LINE
  5
2C0
330
1F
100
AcDbEntity
  8
VISIBLE
100
AcDbLine
 10
171.3256098961467
 20
393.1823874365493
 30
0.0
 11
165.3256098961467
 21
393.1823874365493
 31
0.0
  0
ARC
  5
2C1
330
1F
100
AcDbEntity
  8
VISIBLE
100
AcDbCircle
 10
171.3256098961467
 20
393.6823874365493
 30
0.0
 40
0.5
100
AcDbArc
 50
270.0
 51
0.0
  0
LINE
  5
2C2
330
1F
100
AcDbEntity
  8
VISIBLE
100
AcDbLine
 10
171.8256098961467
 20
407.6823874365493
 30
0.0
 11
171.8256098961467
 21
393.6823874365493
 31
0.0
  0
ARC
  5
2C3
330
1F
100
AcDbEntity
  8
VISIBLE
100
AcDbCircle
 10
171.3256098961467
 20
407.6823874365493
 30
0.0
 40
0.5
100
AcDbArc
 50
0.0
 51
90.0
  0
LINE
  5
2C4
330
1F
100
AcDbEntity
  8
VISIBLE
100
AcDbLine
 10
165.3256098961467
 20
408.1823874365493
 30
0.0
 11
171.3256098961467
 21
408.1823874365493
 31
0.0
  0
ARC
  5
2C5
330
1F
100
AcDbEntity
  8
VISIBLE
100
AcDbCircle
 10
199.8938598961467
 20
408.6823874365493
 30
0.0
 40
0.5
100
AcDbArc
 50
90.0
 51
180.0
  0
LINE
  5
2C6
330
1F
100
AcDbEntity
  8
VISIBLE
100
AcDbLine
 10
199.3938598961467
 20
395.6823874365493
 30
0.0
 11
199.3938598961467
 21
408.6823874365493
 31
0.0
  0
ARC
  5
2C7
330
1F
100
AcDbEntity
  8
VISIBLE
100
AcDbCircle
 10
199.8938598961467
 20
395.6823874365493
 30
0.0
 40
0.5
100
AcDbArc
 50
180.0
 51
270.0
  0
LINE
  5
2C8
330
1F
100
AcDbEntity
  8
VISIBLE
100
AcDbLine
 10
212.8938598961467
 20
395.1823874365493
 30
0.0
 11
199.8938598961467
 21
395.1823874365493
 31
0.0
  0
ARC
  5
2C9
330
1F
100
AcDbEntity
  8
VISIBLE
100
AcDbCircle
 10
212.8938598961467
 20
395.6823874365493
 30
0.0
 40
0.5
100
AcDbArc
 50
270.0
 51
0.0
  0
LINE
  5
2CA
330
1F
100
AcDbEntity
  8
VISIBLE
100
AcDbLine
 10
213.3938598961467
 20
408.6823874365493
 30
0.0
 11
213.3938598961467
 21
395.6823874365493
 31
0.0
  0
ARC
  5
2CB
330
1F
100
AcDbEntity
  8
VISIBLE
100
AcDbCircle
 10
212.8938598961467
 20
408.6823874365493
 30
0.0
 40
0.5
100
AcDbArc
 50
0.0
 51
90.0
  0
LINE
  5
2CC
330
1F
100
AcDbEntity
  8
VISIBLE
100
AcDbLine
 10
199.8938598961467
 20
409.1823874365493
 30
0.0
 11
212.8938598961467
 21
409.1823874365493
 31
0.0
  0
ARC
  5
2CD
330
1F
100
AcDbEntity
  8
VISIBLE
100
AcDbCircle
 10
423.7313598961467
 20
427.7323874365493
 30
0.0
 40
0.5
100
AcDbArc
 50
90.0
 51
180.0
  0
LINE
  5
2CE
330
1F
100
AcDbEntity
  8
VISIBLE
100
AcDbLine
 10
423.2313598961467
 20
414.7323874365493
 30
0.0
 11
423.2313598961467
 21
427.7323874365493
 31
0.0
  0
ARC
  5
2CF
330
1F
100
AcDbEntity
  8
VISIBLE
100
AcDbCircle
 10
423.7313598961467
 20
414.7323874365493
 30
0.0
 40
0.5000000000000071
100
AcDbArc
 50
180.0
 51
270.0
  0
LINE
  5
2D0
330
1F
100
AcDbEntity
  8
VISIBLE
100
AcDbLine
 10
436.7313598961467
 20
414.2323874365493
 30
0.0
 11
423.7313598961467
 21
414.2323874365493
 31
0.0
  0
ARC
  5
2D1
330
1F
100
AcDbEntity
  8
VISIBLE
100
AcDbCircle
 10
436.7313598961467
 20
414.7323874365493
 30
0.0
 40
0.5
100
AcDbArc
 50
270.0
 51
0.0
  0
LINE
  5
2D2
330
1F
100
AcDbEntity
  8
VISIBLE
100
AcDbLine
 10
437.2313598961467
 20
427.7323874365493
 30
0.0
 11
437.2313598961467
 21
414.7323874365493
 31
0.0
  0
ARC
  5
2D3
330
1F
100
AcDbEntity
  8
VISIBLE
100
AcDbCircle
 10
436.7313598961467
 20
427.7323874365493
 30
0.0
 40
0.5000000000000071
100
AcDbArc
 50
0.0
 51
90.0
  0
LINE
  5
2D4
330
1F
100
AcDbEntity
  8
VISIBLE
100
AcDbLine
 10
423.7313598961467
 20
428.2323874365493
 30
0.0
 11
436.7313598961467
 21
428.2323874365493
 31
0.0
  0
ARC
  5
2D5
330
1F
100
AcDbEntity
  8
VISIBLE
100
AcDbCircle
 10
180.8438598961467
 20
408.6823874365493
 30
0.0
 40
0.5
100
AcDbArc
 50
90.0
 51
180.0
  0
LINE
  5
2D6
330
1F
100
AcDbEntity
  8
VISIBLE
100
AcDbLine
 10
180.3438598961467
 20
395.6823874365493
 30
0.0
 11
180.3438598961467
 21
408.6823874365493
 31
0.0
  0
ARC
  5
2D7
330
1F
100
AcDbEntity
  8
VISIBLE
100
AcDbCircle
 10
180.8438598961467
 20
395.6823874365493
 30
0.0
 40
0.5
100
AcDbArc
 50
180.0
 51
270.0
  0
LINE
  5
2D8
330
1F
100
AcDbEntity
  8
VISIBLE
100
AcDbLine
 10
193.8438598961467
 20
395.1823874365493
 30
0.0
 11
180.8438598961467
 21
395.1823874365493
 31
0.0
  0
ARC
  5
2D9
330
1F
100
AcDbEntity
  8
VISIBLE
100
AcDbCircle
 10
193.8438598961467
 20
395.6823874365493
 30
0.0
 40
0.5
100
AcDbArc
 50
270.0
 51
0.0
  0
LINE
  5
2DA
330
1F
100
AcDbEntity
  8
VISIBLE
100
AcDbLine
 10
194.3438598961467
 20
408.6823874365493
 30
0.0
 11
194.3438598961467
 21
395.6823874365493
 31
0.0
  0
ARC
  5
2DB
330
1F
100
AcDbEntity
  8
VISIBLE
100
AcDbCircle
 10
193.8438598961467
 20
408.6823874365493
 30
0.0
 40
0.5
100
AcDbArc
 50
0.0
 51
90.0
  0
LINE
  5
2DC
330
1F
100
AcDbEntity
  8
VISIBLE
100
AcDbLine
 10
180.8438598961467
 20
409.1823874365493
 30
0.0
 11
193.8438598961467
 21
409.1823874365493
 31
0.0
  0
ARC
  5
2DD
330
1F
100
AcDbEntity
  8
VISIBLE
100
AcDbCircle
 10
149.8876098961467
 20
408.6823874365493
 30
0.0
 40
0.5
100
AcDbArc
 50
90.0
 51
180.0
  0
LINE
  5
2DE
330
1F
100
AcDbEntity
  8
VISIBLE
100
AcDbLine
 10
149.3876098961467
 20
395.6823874365493
 30
0.0
 11
149.3876098961467
 21
408.6823874365493
 31
0.0
  0
ARC
  5
2DF
330
1F
100
AcDbEntity
  8
VISIBLE
100
AcDbCircle
 10
149.8876098961467
 20
395.6823874365493
 30
0.0
 40
0.5
100
AcDbArc
 50
180.0
 51
270.0
  0
LINE
  5
2E0
330
1F
100
AcDbEntity
  8
VISIBLE
100
AcDbLine
 10
162.8876098961467
 20
395.1823874365493
 30
0.0
 11
149.8876098961467
 21
395.1823874365493
 31
0.0
  0
ARC
  5
2E1
330
1F
100
AcDbEntity
  8
VISIBLE
100
AcDbCircle
 10
162.8876098961467
 20
395.6823874365493
 30
0.0
 40
0.5
100
AcDbArc
 50
270.0
 51
0.0
  0
LINE
  5
2E2
330
1F
100
AcDbEntity
  8
VISIBLE
100
AcDbLine
 10
163.3876098961467
 20
408.6823874365493
 30
0.0
 11
163.3876098961467
 21
395.6823874365493
 31
0.0
  0
ARC
  5
2E3
330
1F
100
AcDbEntity
  8
VISIBLE
100
AcDbCircle
 10
162.8876098961467
 20
408.6823874365493
 30
0.0
 40
0.5
100
AcDbArc
 50
0.0
 51
90.0
  0
LINE
  5
2E4
330
1F
100
AcDbEntity
  8
VISIBLE
100
AcDbLine
 10
149.8876098961467
 20
409.1823874365493
 30
0.0
 11
162.8876098961467
 21
409.1823874365493
 31
0.0
  0
ARC
  5
2E5
330
1F
100
AcDbEntity
  8
VISIBLE
100
AcDbCircle
 10
141.4496098961467
 20
407.6823874365493
 30
0.0
 40
0.5
100
AcDbArc
 50
90.0
 51
180.0
  0
LINE
  5
2E6
330
1F
100
AcDbEntity
  8
VISIBLE
100
AcDbLine
 10
140.9496098961467
 20
393.6823874365493
 30
0.0
 11
140.9496098961467
 21
407.6823874365493
 31
0.0
  0
ARC
  5
2E7
330
1F
100
AcDbEntity
  8
VISIBLE
100
AcDbCircle
 10
141.4496098961467
 20
393.6823874365493
 30
0.0
 40
0.5
100
AcDbArc
 50
180.0
 51
270.0
  0
LINE
  5
2E8
330
1F
100
AcDbEntity
  8
VISIBLE
100
AcDbLine
 10
147.4496098961467
 20
393.1823874365493
 30
0.0
 11
141.4496098961467
 21
393.1823874365493
 31
0.0
  0
ARC
  5
2E9
330
1F
100
AcDbEntity
  8
VISIBLE
100
AcDbCircle
 10
147.4496098961467
 20
393.6823874365493
 30
0.0
 40
0.5
100
AcDbArc
 50
270.0
 51
0.0
  0
LINE
  5
2EA
330
1F
100
AcDbEntity
  8
VISIBLE
100
AcDbLine
 10
147.9496098961467
 20
407.6823874365493
 30
0.0
 11
147.9496098961467
 21
393.6823874365493
 31
0.0
  0
ARC
  5
2EB
330
1F
100
AcDbEntity
  8
VISIBLE
100
AcDbCircle
 10
147.4496098961467
 20
407.6823874365493
 30
0.0
 40
0.5
100
AcDbArc
 50
0.0
 51
90.0
  0
LINE
  5
2EC
330
1F
100
AcDbEntity
  8
VISIBLE
100
AcDbLine
 10
141.4496098961467
 20
408.1823874365493
 30
0.0
 11
147.4496098961467
 21
408.1823874365493
 31
0.0
  0
ARC
  5
2ED
330
1F
100
AcDbEntity
  8
VISIBLE
100
AcDbCircle
 10
423.7313598961467
 20
389.6323874365493
 30
0.0
 40
0.5
100
AcDbArc
 50
90.0
 51
180.0
  0
LINE
  5
2EE
330
1F
100
AcDbEntity
  8
VISIBLE
100
AcDbLine
 10
423.2313598961467
 20
376.6323874365494
 30
0.0
 11
423.2313598961467
 21
389.6323874365493
 31
0.0
  0
ARC
  5
2EF
330
1F
100
AcDbEntity
  8
VISIBLE
100
AcDbCircle
 10
423.7313598961467
 20
376.6323874365494
 30
0.0
 40
0.5000000000000071
100
AcDbArc
 50
180.0
 51
270.0
  0
LINE
  5
2F0
330
1F
100
AcDbEntity
  8
VISIBLE
100
AcDbLine
 10
436.7313598961467
 20
376.1323874365493
 30
0.0
 11
423.7313598961467
 21
376.1323874365493
 31
0.0
  0
ARC
  5
2F1
330
1F
100
AcDbEntity
  8
VISIBLE
100
AcDbCircle
 10
436.7313598961467
 20
376.6323874365494
 30
0.0
 40
0.5000000000000071
100
AcDbArc
 50
270.0
 51
0.0
  0
LINE
  5
2F2
330
1F
100
AcDbEntity
  8
VISIBLE
100
AcDbLine
 10
437.2313598961467
 20
389.6323874365493
 30
0.0
 11
437.2313598961467
 21
376.6323874365494
 31
0.0
  0
ARC
  5
2F3
330
1F
100
AcDbEntity
  8
VISIBLE
100
AcDbCircle
 10
436.7313598961467
 20
389.6323874365493
 30
0.0
 40
0.5000000000000071
100
AcDbArc
 50
0.0
 51
90.0
  0
LINE
  5
2F4
330
1F
100
AcDbEntity
  8
VISIBLE
100
AcDbLine
 10
423.7313598961467
 20
390.1323874365493
 30
0.0
 11
436.7313598961467
 21
390.1323874365493
 31
0.0
  0
ARC
  5
2F5
330
1F
100
AcDbEntity
  8
VISIBLE
100
AcDbCircle
 10
385.6313598961467
 20
389.6323874365493
 30
0.0
 40
0.5
100
AcDbArc
 50
90.0
 51
180.0
  0
LINE
  5
2F6
330
1F
100
AcDbEntity
  8
VISIBLE
100
AcDbLine
 10
385.1313598961467
 20
376.6323874365494
 30
0.0
 11
385.1313598961467
 21
389.6323874365493
 31
0.0
  0
ARC
  5
2F7
330
1F
100
AcDbEntity
  8
VISIBLE
100
AcDbCircle
 10
385.6313598961467
 20
376.6323874365494
 30
0.0
 40
0.5000000000000071
100
AcDbArc
 50
180.0
 51
270.0
  0
LINE
  5
2F8
330
1F
100
AcDbEntity
  8
VISIBLE
100
AcDbLine
 10
398.6313598961467
 20
376.1323874365493
 30
0.0
 11
385.6313598961467
 21
376.1323874365493
 31
0.0
  0
ARC
  5
2F9
330
1F
100
AcDbEntity
  8
VISIBLE
100
AcDbCircle
 10
398.6313598961467
 20
376.6323874365494
 30
0.0
 40
0.5000000000000071
100
AcDbArc
 50
270.0
 51
0.0
  0
LINE
  5
2FA
330
1F
100
AcDbEntity
  8
VISIBLE
100
AcDbLine
 10
399.1313598961467
 20
389.6323874365493
 30
0.0
 11
399.1313598961467
 21
376.6323874365494
 31
0.0
  0
ARC
  5
2FB
330
1F
100
AcDbEntity
  8
VISIBLE
100
AcDbCircle
 10
398.6313598961467
 20
389.6323874365493
 30
0.0
 40
0.5000000000000071
100
AcDbArc
 50
0.0
 51
90.0
  0
LINE
  5
2FC
330
1F
100
AcDbEntity
  8
VISIBLE
100
AcDbLine
 10
385.6313598961467
 20
390.1323874365493
 30
0.0
 11
398.6313598961467
 21
390.1323874365493
 31
0.0
  0
ARC
  5
2FD
330
1F
100
AcDbEntity
  8
VISIBLE
100
AcDbCircle
 10
404.6813598961467
 20
389.6323874365493
 30
0.0
 40
0.5
100
AcDbArc
 50
90.0
 51
180.0
  0
LINE
  5
2FE
330
1F
100
AcDbEntity
  8
VISIBLE
100
AcDbLine
 10
404.1813598961467
 20
376.6323874365494
 30
0.0
 11
404.1813598961467
 21
389.6323874365493
 31
0.0
  0
ARC
  5
2FF
330
1F
100
AcDbEntity
  8
VISIBLE
100
AcDbCircle
 10
404.6813598961467
 20
376.6323874365494
 30
0.0
 40
0.5000000000000071
100
AcDbArc
 50
180.0
 51
270.0
  0
LINE
  5
300
330
1F
100
AcDbEntity
  8
VISIBLE
100
AcDbLine
 10
417.6813598961468
 20
376.1323874365493
 30
0.0
 11
404.6813598961467
 21
376.1323874365493
 31
0.0
  0
ARC
  5
301
330
1F
100
AcDbEntity
  8
VISIBLE
100
AcDbCircle
 10
417.6813598961468
 20
376.6323874365494
 30
0.0
 40
0.5000000000000071
100
AcDbArc
 50
270.0
 51
0.0
  0
LINE
  5
302
330
1F
100
AcDbEntity
  8
VISIBLE
100
AcDbLine
 10
418.1813598961468
 20
389.6323874365493
 30
0.0
 11
418.1813598961468
 21
376.6323874365494
 31
0.0
  0
ARC
  5
303
330
1F
100
AcDbEntity
  8
VISIBLE
100
AcDbCircle
 10
417.6813598961468
 20
389.6323874365493
 30
0.0
 40
0.5000000000000071
100
AcDbArc
 50
0.0
 51
90.0
  0
LINE
  5
304
330
1F
100
AcDbEntity
  8
VISIBLE
100
AcDbLine
 10
404.6813598961467
 20
390.1323874365493
 30
0.0
 11
417.6813598961468
 21
390.1323874365493
 31
0.0
  0
ARC
  5
305
330
1F
100
AcDbEntity
  8
VISIBLE
100
AcDbCircle
 10
417.6813598961468
 20
452.8323874365494
 30
0.0
 40
0.5
100
AcDbArc
 50
270.0
 51
0.0
  0
LINE
  5
306
330
1F
100
AcDbEntity
  8
VISIBLE
100
AcDbLine
 10
418.1813598961468
 20
465.8323874365494
 30
0.0
 11
418.1813598961468
 21
452.8323874365494
 31
0.0
  0
ARC
  5
307
330
1F
100
AcDbEntity
  8
VISIBLE
100
AcDbCircle
 10
417.6813598961468
 20
465.8323874365494
 30
0.0
 40
0.5
100
AcDbArc
 50
0.0
 51
90.0
  0
LINE
  5
308
330
1F
100
AcDbEntity
  8
VISIBLE
100
AcDbLine
 10
385.6313598961467
 20
466.3323874365494
 30
0.0
 11
417.6813598961468
 21
466.3323874365494
 31
0.0
  0
ARC
  5
309
330
1F
100
AcDbEntity
  8
VISIBLE
100
AcDbCircle
 10
385.6313598961467
 20
465.8323874365494
 30
0.0
 40
0.5
100
AcDbArc
 50
90.0
 51
180.0
  0
LINE
  5
30A
330
1F
100
AcDbEntity
  8
VISIBLE
100
AcDbLine
 10
385.1313598961467
 20
452.8323874365494
 30
0.0
 11
385.1313598961467
 21
465.8323874365494
 31
0.0
  0
ARC
  5
30B
330
1F
100
AcDbEntity
  8
VISIBLE
100
AcDbCircle
 10
385.6313598961467
 20
452.8323874365494
 30
0.0
 40
0.5
100
AcDbArc
 50
180.0
 51
270.0
  0
LINE
  5
30C
330
1F
100
AcDbEntity
  8
VISIBLE
100
AcDbLine
 10
385.7183598961467
 20
452.3323874365494
 30
0.0
 11
385.6313598961467
 21
452.3323874365494
 31
0.0
  0
ARC
  5
30D
330
1F
100
AcDbEntity
  8
VISIBLE
100
AcDbCircle
 10
385.7183598961467
 20
451.8323874365494
 30
0.0
 40
0.5
100
AcDbArc
 50
0.0
 51
90.0
  0
LINE
  5
30E
330
1F
100
AcDbEntity
  8
VISIBLE
100
AcDbLine
 10
386.2183598961467
 20
450.8323874365494
 30
0.0
 11
386.2183598961467
 21
451.8323874365494
 31
0.0
  0
ARC
  5
30F
330
1F
100
AcDbEntity
  8
VISIBLE
100
AcDbCircle
 10
386.7183598961467
 20
450.8323874365494
 30
0.0
 40
0.5000000000000071
100
AcDbArc
 50
180.0
 51
270.0
  0
LINE
  5
310
330
1F
100
AcDbEntity
  8
VISIBLE
100
AcDbLine
 10
392.7183598961467
 20
450.3323874365494
 30
0.0
 11
386.7183598961467
 21
450.3323874365494
 31
0.0
  0
ARC
  5
311
330
1F
100
AcDbEntity
  8
VISIBLE
100
AcDbCircle
 10
392.7183598961467
 20
450.8323874365494
 30
0.0
 40
0.5
100
AcDbArc
 50
270.0
 51
0.0
  0
LINE
  5
312
330
1F
100
AcDbEntity
  8
VISIBLE
100
AcDbLine
 10
393.2183598961467
 20
451.8323874365494
 30
0.0
 11
393.2183598961467
 21
450.8323874365494
 31
0.0
  0
ARC
  5
313
330
1F
100
AcDbEntity
  8
VISIBLE
100
AcDbCircle
 10
393.7183598961467
 20
451.8323874365494
 30
0.0
 40
0.5
100
AcDbArc
 50
90.0
 51
180.0
  0
LINE
  5
314
330
1F
100
AcDbEntity
  8
VISIBLE
100
AcDbLine
 10
409.5943598961467
 20
452.3323874365494
 30
0.0
 11
393.7183598961467
 21
452.3323874365494
 31
0.0
  0
ARC
  5
315
330
1F
100
AcDbEntity
  8
VISIBLE
100
AcDbCircle
 10
409.5943598961467
 20
451.8323874365494
 30
0.0
 40
0.5
100
AcDbArc
 50
0.0
 51
90.0
  0
LINE
  5
316
330
1F
100
AcDbEntity
  8
VISIBLE
100
AcDbLine
 10
410.0943598961467
 20
450.8323874365494
 30
0.0
 11
410.0943598961467
 21
451.8323874365494
 31
0.0
  0
ARC
  5
317
330
1F
100
AcDbEntity
  8
VISIBLE
100
AcDbCircle
 10
410.5943598961467
 20
450.8323874365494
 30
0.0
 40
0.5000000000000071
100
AcDbArc
 50
180.0
 51
270.0
  0
LINE
  5
318
330
1F
100
AcDbEntity
  8
VISIBLE
100
AcDbLine
 10
416.5943598961467
 20
450.3323874365494
 30
0.0
 11
410.5943598961467
 21
450.3323874365494
 31
0.0
  0
ARC
  5
319
330
1F
100
AcDbEntity
  8
VISIBLE
100
AcDbCircle
 10
416.5943598961467
 20
450.8323874365494
 30
0.0
 40
0.5
100
AcDbArc
 50
270.0
 51
0.0
  0
LINE
  5
31A
330
1F
100
AcDbEntity
  8
VISIBLE
100
AcDbLine
 10
417.0943598961467
 20
451.8323874365494
 30
0.0
 11
417.0943598961467
 21
450.8323874365494
 31
0.0
  0
ARC
  5
31B
330
1F
100
AcDbEntity
  8
VISIBLE
100
AcDbCircle
 10
417.5943598961467
 20
451.8323874365494
 30
0.0
 40
0.5
100
AcDbArc
 50
90.0
 51
180.0
  0
LINE
  5
31C
330
1F
100
AcDbEntity
  8
VISIBLE
100
AcDbLine
 10
417.6813598961468
 20
452.3323874365494
 30
0.0
 11
417.5943598961467
 21
452.3323874365494
 31
0.0
  0
ARC
  5
31D
330
1F
100
AcDbEntity
  8
VISIBLE
100
AcDbCircle
 10
158.1251098961467
 20
414.7323874365493
 30
0.0
 40
0.5
100
AcDbArc
 50
270.0
 51
0.0
  0
LINE
  5
31E
330
1F
100
AcDbEntity
  8
VISIBLE
100
AcDbLine
 10
158.6251098961467
 20
427.7323874365493
 30
0.0
 11
158.6251098961467
 21
414.7323874365493
 31
0.0
  0
ARC
  5
31F
330
1F
100
AcDbEntity
  8
VISIBLE
100
AcDbCircle
 10
158.1251098961467
 20
427.7323874365493
 30
0.0
 40
0.5
100
AcDbArc
 50
0.0
 51
90.0
  0
LINE
  5
320
330
1F
100
AcDbEntity
  8
VISIBLE
100
AcDbLine
 10
139.5251098961467
 20
428.2323874365493
 30
0.0
 11
158.1251098961467
 21
428.2323874365493
 31
0.0
  0
ARC
  5
321
330
1F
100
AcDbEntity
  8
VISIBLE
100
AcDbCircle
 10
139.5251098961467
 20
427.7323874365493
 30
0.0
 40
0.5
100
AcDbArc
 50
90.0
 51
180.0
  0
LINE
  5
322
330
1F
100
AcDbEntity
  8
VISIBLE
100
AcDbLine
 10
139.0251098961467
 20
414.7323874365493
 30
0.0
 11
139.0251098961467
 21
427.7323874365493
 31
0.0
  0
ARC
  5
323
330
1F
100
AcDbEntity
  8
VISIBLE
100
AcDbCircle
 10
139.5251098961467
 20
414.7323874365493
 30
0.0
 40
0.5
100
AcDbArc
 50
180.0
 51
270.0
  0
LINE
  5
324
330
1F
100
AcDbEntity
  8
VISIBLE
100
AcDbLine
 10
158.1251098961467
 20
414.2323874365493
 30
0.0
 11
139.5251098961467
 21
414.2323874365493
 31
0.0
  0
LINE
  5
325
330
1F
100
AcDbEntity
  8
VISIBLE
100
AcDbLine
 10
224.1813598961467
 20
391.6323874365494
 30
0.0
 11
224.1813598961467
 21
377.6323874365494
 31
0.0
  0
ARC
  5
326
330
1F
100
AcDbEntity
  8
VISIBLE
100
AcDbCircle
 10
223.6813598961467
 20
391.6323874365494
 30
0.0
 40
0.5000000000000004
100
AcDbArc
 50
0.0
 51
90.0
  0
LINE
  5
327
330
1F
100
AcDbEntity
  8
VISIBLE
100
AcDbLine
 10
212.9251098961467
 20
392.1323874365493
 30
0.0
 11
223.6813598961467
 21
392.1323874365494
 31
0.0
  0
ARC
  5
328
330
1F
100
AcDbEntity
  8
VISIBLE
100
AcDbCircle
 10
212.9251098961467
 20
391.6323874365493
 30
0.0
 40
0.5000000000000071
100
AcDbArc
 50
90.0
 51
180.0
  0
LINE
  5
329
330
1F
100
AcDbEntity
  8
VISIBLE
100
AcDbLine
 10
212.4251098961467
 20
377.6323874365494
 30
0.0
 11
212.4251098961467
 21
391.6323874365493
 31
0.0
  0
ARC
  5
32A
330
1F
100
AcDbEntity
  8
VISIBLE
100
AcDbCircle
 10
212.9251098961467
 20
377.6323874365494
 30
0.0
 40
0.5
100
AcDbArc
 50
180.0
 51
270.0
  0
LINE
  5
32B
330
1F
100
AcDbEntity
  8
VISIBLE
100
AcDbLine
 10
223.6813598961467
 20
377.1323874365494
 30
0.0
 11
212.9251098961467
 21
377.1323874365494
 31
0.0
  0
ARC
  5
32C
330
1F
100
AcDbEntity
  8
VISIBLE
100
AcDbCircle
 10
223.6813598961467
 20
377.6323874365494
 30
0.0
 40
0.5000000000000004
100
AcDbArc
 50
270.0
 51
0.0
  0
LINE
  5
32D
330
1F
100
AcDbEntity
  8
VISIBLE
100
AcDbLine
 10
284.8313598961467
 20
389.6323874365494
 30
0.0
 11
284.8313598961467
 21
376.6323874365494
 31
0.0
  0
ARC
  5
32E
330
1F
100
AcDbEntity
  8
VISIBLE
100
AcDbCircle
 10
284.3313598961467
 20
389.6323874365494
 30
0.0
 40
0.5000000000000004
100
AcDbArc
 50
0.0
 51
90.0
  0
LINE
  5
32F
330
1F
100
AcDbEntity
  8
VISIBLE
100
AcDbLine
 10
259.4251098961467
 20
390.1323874365493
 30
0.0
 11
284.3313598961467
 21
390.1323874365494
 31
0.0
  0
ARC
  5
330
330
1F
100
AcDbEntity
  8
VISIBLE
100
AcDbCircle
 10
259.4251098961467
 20
389.6323874365493
 30
0.0
 40
0.5
100
AcDbArc
 50
90.0
 51
180.0
  0
LINE
  5
331
330
1F
100
AcDbEntity
  8
VISIBLE
100
AcDbLine
 10
258.9251098961467
 20
376.6323874365494
 30
0.0
 11
258.9251098961467
 21
389.6323874365493
 31
0.0
  0
ARC
  5
332
330
1F
100
AcDbEntity
  8
VISIBLE
100
AcDbCircle
 10
259.4251098961467
 20
376.6323874365494
 30
0.0
 40
0.5000000000000071
100
AcDbArc
 50
180.0
 51
270.0
  0
LINE
  5
333
330
1F
100
AcDbEntity
  8
VISIBLE
100
AcDbLine
 10
284.3313598961467
 20
376.1323874365493
 30
0.0
 11
259.4251098961467
 21
376.1323874365493
 31
0.0
  0
ARC
  5
334
330
1F
100
AcDbEntity
  8
VISIBLE
100
AcDbCircle
 10
284.3313598961467
 20
376.6323874365494
 30
0.0
 40
0.5000000000000004
100
AcDbArc
 50
270.0
 51
0.0
  0
LINE
  5
335
330
1F
100
AcDbEntity
  8
VISIBLE
100
AcDbLine
 10
203.8688598961467
 20
389.6323874365494
 30
0.0
 11
203.8688598961467
 21
376.6323874365494
 31
0.0
  0
ARC
  5
336
330
1F
100
AcDbEntity
  8
VISIBLE
100
AcDbCircle
 10
203.3688598961467
 20
389.6323874365494
 30
0.0
 40
0.5000000000000004
100
AcDbArc
 50
0.0
 51
90.0
  0
LINE
  5
337
330
1F
100
AcDbEntity
  8
VISIBLE
100
AcDbLine
 10
187.9876098961467
 20
390.1323874365493
 30
0.0
 11
203.3688598961467
 21
390.1323874365494
 31
0.0
  0
ARC
  5
338
330
1F
100
AcDbEntity
  8
VISIBLE
100
AcDbCircle
 10
187.9876098961467
 20
389.6323874365493
 30
0.0
 40
0.5
100
AcDbArc
 50
90.0
 51
180.0
  0
LINE
  5
339
330
1F
100
AcDbEntity
  8
VISIBLE
100
AcDbLine
 10
187.4876098961467
 20
376.6323874365494
 30
0.0
 11
187.4876098961467
 21
389.6323874365493
 31
0.0
  0
ARC
  5
33A
330
1F
100
AcDbEntity
  8
VISIBLE
100
AcDbCircle
 10
187.9876098961467
 20
376.6323874365494
 30
0.0
 40
0.5
100
AcDbArc
 50
180.0
 51
270.0
  0
LINE
  5
33B
330
1F
100
AcDbEntity
  8
VISIBLE
100
AcDbLine
 10
203.3688598961467
 20
376.1323874365493
 30
0.0
 11
187.9876098961467
 21
376.1323874365493
 31
0.0
  0
ARC
  5
33C
330
1F
100
AcDbEntity
  8
VISIBLE
100
AcDbCircle
 10
203.3688598961467
 20
376.6323874365494
 30
0.0
 40
0.5000000000000004
100
AcDbArc
 50
270.0
 51
0.0
  0
LINE
  5
33D
330
1F
100
AcDbEntity
  8
VISIBLE
100
AcDbLine
 10
330.8626098961468
 20
390.1323874365493
 30
0.0
 11
331.4813598961467
 21
390.1323874365493
 31
0.0
  0
ARC
  5
33E
330
1F
100
AcDbEntity
  8
VISIBLE
100
AcDbCircle
 10
330.8626098961468
 20
389.6323874365493
 30
0.0
 40
0.5
100
AcDbArc
 50
90.0
 51
180.0
  0
LINE
  5
33F
330
1F
100
AcDbEntity
  8
VISIBLE
100
AcDbLine
 10
330.3626098961468
 20
376.6323874365494
 30
0.0
 11
330.3626098961468
 21
389.6323874365493
 31
0.0
  0
ARC
  5
340
330
1F
100
AcDbEntity
  8
VISIBLE
100
AcDbCircle
 10
330.8626098961468
 20
376.6323874365494
 30
0.0
 40
0.5000000000000071
100
AcDbArc
 50
180.0
 51
270.0
  0
LINE
  5
341
330
1F
100
AcDbEntity
  8
VISIBLE
100
AcDbLine
 10
343.8626098961468
 20
376.1323874365493
 30
0.0
 11
330.8626098961468
 21
376.1323874365493
 31
0.0
  0
ARC
  5
342
330
1F
100
AcDbEntity
  8
VISIBLE
100
AcDbCircle
 10
343.8626098961468
 20
376.6323874365494
 30
0.0
 40
0.5000000000000071
100
AcDbArc
 50
270.0
 51
0.0
  0
LINE
  5
343
330
1F
100
AcDbEntity
  8
VISIBLE
100
AcDbLine
 10
344.3626098961468
 20
389.6323874365493
 30
0.0
 11
344.3626098961468
 21
376.6323874365494
 31
0.0
  0
ARC
  5
344
330
1F
100
AcDbEntity
  8
VISIBLE
100
AcDbCircle
 10
343.8626098961468
 20
389.6323874365493
 30
0.0
 40
0.5000000000000071
100
AcDbArc
 50
0.0
 51
90.0
  0
LINE
  5
345
330
1F
100
AcDbEntity
  8
VISIBLE
100
AcDbLine
 10
338.4813598961467
 20
391.6323874365494
 30
0.0
 11
338.4813598961467
 21
390.1323874365493
 31
0.0
  0
ARC
  5
346
330
1F
100
AcDbEntity
  8
VISIBLE
100
AcDbCircle
 10
337.9813598961467
 20
391.6323874365493
 30
0.0
 40
0.5000000000000213
100
AcDbArc
 50
0.0
 51
90.0
  0
LINE
  5
347
330
1F
100
AcDbEntity
  8
VISIBLE
100
AcDbLine
 10
331.9813598961467
 20
392.1323874365494
 30
0.0
 11
337.9813598961467
 21
392.1323874365494
 31
0.0
  0
ARC
  5
348
330
1F
100
AcDbEntity
  8
VISIBLE
100
AcDbCircle
 10
331.9813598961467
 20
391.6323874365494
 30
0.0
 40
0.4999999999999796
100
AcDbArc
 50
90.0
 51
180.0
  0
LINE
  5
349
330
1F
100
AcDbEntity
  8
VISIBLE
100
AcDbLine
 10
331.4813598961467
 20
391.6323874365494
 30
0.0
 11
331.4813598961467
 21
390.1323874365493
 31
0.0
  0
LINE
  5
34A
330
1F
100
AcDbEntity
  8
VISIBLE
100
AcDbLine
 10
180.0563598961467
 20
389.6323874365494
 30
0.0
 11
180.0563598961467
 21
376.6323874365494
 31
0.0
  0
ARC
  5
34B
330
1F
100
AcDbEntity
  8
VISIBLE
100
AcDbCircle
 10
179.5563598961467
 20
389.6323874365494
 30
0.0
 40
0.5000000000000004
100
AcDbArc
 50
0.0
 51
90.0
  0
LINE
  5
34C
330
1F
100
AcDbEntity
  8
VISIBLE
100
AcDbLine
 10
164.1751098961467
 20
390.1323874365493
 30
0.0
 11
179.5563598961467
 21
390.1323874365494
 31
0.0
  0
ARC
  5
34D
330
1F
100
AcDbEntity
  8
VISIBLE
100
AcDbCircle
 10
164.1751098961467
 20
389.6323874365493
 30
0.0
 40
0.5
100
AcDbArc
 50
90.0
 51
180.0
  0
LINE
  5
34E
330
1F
100
AcDbEntity
  8
VISIBLE
100
AcDbLine
 10
163.6751098961467
 20
376.6323874365494
 30
0.0
 11
163.6751098961467
 21
389.6323874365493
 31
0.0
  0
ARC
  5
34F
330
1F
100
AcDbEntity
  8
VISIBLE
100
AcDbCircle
 10
164.1751098961467
 20
376.6323874365494
 30
0.0
 40
0.5
100
AcDbArc
 50
180.0
 51
270.0
  0
LINE
  5
350
330
1F
100
AcDbEntity
  8
VISIBLE
100
AcDbLine
 10
179.5563598961467
 20
376.1323874365493
 30
0.0
 11
164.1751098961467
 21
376.1323874365493
 31
0.0
  0
ARC
  5
351
330
1F
100
AcDbEntity
  8
VISIBLE
100
AcDbCircle
 10
179.5563598961467
 20
376.6323874365494
 30
0.0
 40
0.5000000000000004
100
AcDbArc
 50
270.0
 51
0.0
  0
LINE
  5
352
330
1F
100
AcDbEntity
  8
VISIBLE
100
AcDbLine
 10
156.2438598961467
 20
389.6323874365494
 30
0.0
 11
156.2438598961467
 21
376.6323874365494
 31
0.0
  0
ARC
  5
353
330
1F
100
AcDbEntity
  8
VISIBLE
100
AcDbCircle
 10
155.7438598961467
 20
389.6323874365494
 30
0.0
 40
0.5000000000000004
100
AcDbArc
 50
0.0
 51
90.0
  0
LINE
  5
354
330
1F
100
AcDbEntity
  8
VISIBLE
100
AcDbLine
 10
140.3626098961467
 20
390.1323874365493
 30
0.0
 11
155.7438598961467
 21
390.1323874365494
 31
0.0
  0
ARC
  5
355
330
1F
100
AcDbEntity
  8
VISIBLE
100
AcDbCircle
 10
140.3626098961467
 20
389.6323874365493
 30
0.0
 40
0.5
100
AcDbArc
 50
90.0
 51
180.0
  0
LINE
  5
356
330
1F
100
AcDbEntity
  8
VISIBLE
100
AcDbLine
 10
139.8626098961467
 20
376.6323874365494
 30
0.0
 11
139.8626098961467
 21
389.6323874365493
 31
0.0
  0
ARC
  5
357
330
1F
100
AcDbEntity
  8
VISIBLE
100
AcDbCircle
 10
140.3626098961467
 20
376.6323874365494
 30
0.0
 40
0.5
100
AcDbArc
 50
180.0
 51
270.0
  0
LINE
  5
358
330
1F
100
AcDbEntity
  8
VISIBLE
100
AcDbLine
 10
155.7438598961467
 20
376.1323874365493
 30
0.0
 11
140.3626098961467
 21
376.1323874365493
 31
0.0
  0
ARC
  5
359
330
1F
100
AcDbEntity
  8
VISIBLE
100
AcDbCircle
 10
155.7438598961467
 20
376.6323874365494
 30
0.0
 40
0.5000000000000004
100
AcDbArc
 50
270.0
 51
0.0
  0
LINE
  5
35A
330
1F
100
AcDbEntity
  8
VISIBLE
100
AcDbLine
 10
338.4813598961467
 20
390.1323874365493
 30
0.0
 11
343.8626098961468
 21
390.1323874365493
 31
0.0
  0
MTEXT
  5
35B
102
{ACAD_XDICTIONARY
360
35C
102
}
330
1F
100
AcDbEntity
  8
ANNOTATION_TEXT
 62
     7
 60
     1
100
AcDbMText
 10
287.3563598961467
 20
351.4517554992784
 30
0.0
 40
3.5
 41
0.0
 71
     2
 72
     1
  1

  7
ONSHAPE-STANDARD-VIEW-LABE
1001
ACAD
1000
ACAD_MTEXT_DEFINED_HEIGHT_BEGIN
1070
    46
1040
3.5
1000
ACAD_MTEXT_DEFINED_HEIGHT_END
  0
ENDSEC
  0
SECTION
  2
OBJECTS
  0
DICTIONARY
  5
C
330
0
100
AcDbDictionary
  3
ACAD_GROUP
350
D
  3
ACAD_LAYOUT
350
1A
  3
ACAD_MATERIAL
350
43
  3
ACAD_MLEADERSTYLE
350
6B
  3
ACAD_MLINESTYLE
350
17
  3
ACAD_PLOTSETTINGS
350
19
  3
ACAD_SCALELIST
350
47
  3
ACAD_VISUALSTYLE
350
2A
  3
ACDBHEADERROUNDTRIPXREC
350
3B1
  3
ACDBVARIABLEDICTIONARY
350
6E
  3
ONSHAPE_DATA
350
362
  0
DICTIONARY
  5
3DC
330
8
100
AcDbDictionary
280
     1
  3
ACAD_XREC_ROUNDTRIP
360
3DD
  0
DICTIONARY
  5
35C
330
35B
100
AcDbDictionary
280
     1
  3
ONSHAPE_VIEW_ID
360
35D
  0
DICTIONARY
  5
D
102
{ACAD_REACTORS
330
C
102
}
330
C
100
AcDbDictionary
  0
DICTIONARY
  5
1A
102
{ACAD_REACTORS
330
C
102
}
330
C
100
AcDbDictionary
  0
DICTIONARY
  5
43
102
{ACAD_REACTORS
330
C
102
}
330
C
100
AcDbDictionary
  3
BYBLOCK
350
45
  3
BYLAYER
350
44
  3
GLOBAL
350
46
  0
DICTIONARY
  5
6B
102
{ACAD_REACTORS
330
C
102
}
330
C
100
AcDbDictionary
  3
STANDARD
350
6C
  0
DICTIONARY
  5
17
102
{ACAD_REACTORS
330
C
102
}
330
C
100
AcDbDictionary
  3
STANDARD
350
18
  0
DICTIONARY
  5
19
102
{ACAD_REACTORS
330
C
102
}
330
C
100
AcDbDictionary
  0
DICTIONARY
  5
47
102
{ACAD_REACTORS
330
C
102
}
330
C
100
AcDbDictionary
  3
A0
350
48
  3
A1
350
49
  3
A2
350
4A
  3
A3
350
4B
  3
A4
350
4C
  3
A5
350
4D
  3
A6
350
4E
  3
A7
350
4F
  3
A8
350
50
  3
A9
350
51
  3
B0
350
52
  3
B1
350
53
  3
B2
350
54
  3
B3
350
55
  3
B4
350
56
  3
B5
350
57
  3
B6
350
58
  3
B7
350
59
  3
B8
350
5A
  3
B9
350
5B
  3
C0
350
5C
  3
C1
350
5D
  3
C2
350
5E
  3
C3
350
5F
  3
C4
350
60
  3
C5
350
61
  3
C6
350
62
  3
C7
350
63
  3
C8
350
64
  3
C9
350
65
  3
D0
350
66
  3
D1
350
67
  3
D2
350
68
  0
DICTIONARY
  5
2A
102
{ACAD_REACTORS
330
C
102
}
330
C
100
AcDbDictionary
  3
2DWIREFRAME
350
2F
  3
BASIC
350
32
  3
BRIGHTEN
350
36
  3
COLORCHANGE
350
3A
  3
CONCEPTUAL
350
34
  3
DIM
350
35
  3
EDGECOLOROFF
350
3D
  3
FACEPATTERN
350
39
  3
FLAT
350
2B
  3
FLATWITHEDGES
350
2C
  3
GOURAUD
350
2D
  3
GOURAUDWITHEDGES
350
2E
  3
HIDDEN
350
31
  3
JITTEROFF
350
3B
  3
LINEPATTERN
350
38
  3
OVERHANGOFF
350
3C
  3
REALISTIC
350
33
  3
SHADED
350
42
  3
SHADED_WITH_EDGES
350
41
  3
SHADES_OF_GRAY
350
3E
  3
SKETCHY
350
3F
  3
THICKEN
350
37
  3
WIREFRAME
350
30
  3
X-RAY
350
40
  0
DICTIONARY
  5
3B1
102
{ACAD_REACTORS
330
C
102
}
330
C
100
AcDbDictionary
  3
CEPSNID
350
3BB
  3
CEPSNTYPE
350
3BA
  3
DIMSTYLEDATA
350
3D1
  3
FINGERPRINTGUID
350
3BC
  3
HYPERLINKBASE
350
3B4
  3
INSUNITS
350
3B9
  3
LAYOUTDICT
350
3B6
  3
LWETCUNION
350
3B8
  3
PLOTSETDICT
350
3B7
  3
PSVPSCALE
350
3BE
  3
PUCSBASE
350
3C1
  3
PUCSORGBACK
350
3C7
  3
PUCSORGBOTTOM
350
3C3
  3
PUCSORGFRONT
350
3C6
  3
PUCSORGLEFT
350
3C4
  3
PUCSORGRIGHT
350
3C5
  3
PUCSORGTOP
350
3C2
  3
PUCSORTHOREF
350
3BF
  3
PUCSORTHOVIEW
350
3C0
  3
STYLESHEET
350
3B5
  3
TSTACKALIGN
350
3B2
  3
TSTACKSIZE
350
3B3
  3
UCSBASE
350
3CA
  3
UCSORGBACK
350
3D0
  3
UCSORGBOTTOM
350
3CC
  3
UCSORGFRONT
350
3CF
  3
UCSORGLEFT
350
3CD
  3
UCSORGRIGHT
350
3CE
  3
UCSORGTOP
350
3CB
  3
UCSORTHOREF
350
3C8
  3
UCSORTHOVIEW
350
3C9
  3
VERSIONGUID
350
3BD
  0
DICTIONARY
  5
6E
102
{ACAD_REACTORS
330
C
102
}
330
C
100
AcDbDictionary
  3
CANNOSCALE
350
3DE
  3
CENTEREXE
350
3D8
  3
CENTERLTYPEFILE
350
3D9
  3
CMLEADERSTYLE
350
3D3
  3
CTABLESTYLE
350
3D2
  3
DIMASSOC
350
3DA
  3
HIDETEXT
350
3DB
  3
MSLTSCALE
350
3DF
  3
OLEFRAME
350
6F
  3
PSOLHEIGHT
350
3D5
  3
PSOLWIDTH
350
3D4
  0
DICTIONARY
  5
362
102
{ACAD_REACTORS
330
C
102
}
330
C
100
AcDbDictionary
280
     1
  3
DIM_UNITS
360
363
  3
ONSHAPE_ANG_TOL_PRECISION
360
366
  3
ONSHAPE_UNDERLINEOVERRIDEN
360
367
  3
ONSHAPE_VSHARP_EXTENSION
360
365
  3
ONSHAPE_WELD_STANDARD
360
364
  0
XRECORD
  5
3DD
102
{ACAD_REACTORS
330
3DC
102
}
330
3DC
100
AcDbXrecord
102
VTR_0.000_0.000_1.000_1.000_VISUALSTYLE
340
2F
102
VTR_0.000_0.000_1.000_1.000_GRIDDISPLAY
 70
     3
102
VTR_0.000_0.000_1.000_1.000_GRIDMAJOR
 70
     5
102
VTR_0.000_0.000_1.000_1.000_DEFAULTLIGHTING
280
     1
102
VTR_0.000_0.000_1.000_1.000_DEFAULTLIGHTINGTYPE
 70
     1
102
VTR_0.000_0.000_1.000_1.000_BRIGHTNESS
141
0.0
102
VTR_0.000_0.000_1.000_1.000_CONTRAST
142
0.0
  0
XRECORD
  5
35D
102
{ACAD_REACTORS
330
35C
102
}
330
35C
100
AcDbXrecord
330
0
  0
MATERIAL
  5
45
102
{ACAD_REACTORS
330
43
102
}
102
{ACAD_XDICTIONARY
360
3E2
102
}
330
43
100
AcDbMaterial
  1
BYBLOCK
  0
MATERIAL
  5
44
102
{ACAD_REACTORS
330
43
102
}
102
{ACAD_XDICTIONARY
360
3E0
102
}
330
43
100
AcDbMaterial
  1
BYLAYER
  0
MATERIAL
  5
46
102
{ACAD_REACTORS
330
43
102
}
102
{ACAD_XDICTIONARY
360
3E4
102
}
330
43
100
AcDbMaterial
  1
GLOBAL
  0
ACAD_PROXY_OBJECT
  5
6C
102
{ACAD_REACTORS
330
6B
102
}
330
6B
100
AcDbProxyObject
 90
      499
 91
      505
 93
      610
310
40901902A4063FBFFFFFE0000000000000020400000000000020404214DD185B99185C990000000000000104090140501A00000000000004100000000000000041025764000000000000039000
340
14
340
0
340
11
340
0
 94
        0
1001
ACAD_MLEADERVER
1070
     2
  0
MLINESTYLE
  5
18
102
{ACAD_REACTORS
330
17
102
}
330
17
100
AcDbMlineStyle
  2
Standard
 70
     0
  3

 62
   256
 51
90.0
 52
90.0
 71
     2
 49
0.5
 62
   256
  6
BYLAYER
 49
-0.5
 62
   256
  6
BYLAYER
  0
ACAD_PROXY_OBJECT
  5
48
102
{ACAD_REACTORS
330
47
102
}
330
47
100
AcDbProxyObject
 90
      499
 91
      503
 93
       41
310
903313A31580
  0
ACAD_PROXY_OBJECT
  5
49
102
{ACAD_REACTORS
330
47
102
}
330
47
100
AcDbProxyObject
 90
      499
 91
      503
 93
      105
310
903313A324000000000000004000
  0
ACAD_PROXY_OBJECT
  5
4A
102
{ACAD_REACTORS
330
47
102
}
330
47
100
AcDbProxyObject
 90
      499
 91
      503
 93
      105
310
903313A344000000000000104000
  0
ACAD_PROXY_OBJECT
  5
4B
102
{ACAD_REACTORS
330
47
102
}
330
47
100
AcDbProxyObject
 90
      499
 91
      503
 93
      105
310
903313A354000000000000144000
  0
ACAD_PROXY_OBJECT
  5
4C
102
{ACAD_REACTORS
330
47
102
}
330
47
100
AcDbProxyObject
 90
      499
 91
      503
 93
      105
310
903313A384000000000000204000
  0
ACAD_PROXY_OBJECT
  5
4D
102
{ACAD_REACTORS
330
47
102
}
330
47
100
AcDbProxyObject
 90
      499
 91
      503
 93
      113
310
904313A31304000000000000244000
  0
ACAD_PROXY_OBJECT
  5
4E
102
{ACAD_REACTORS
330
47
102
}
330
47
100
AcDbProxyObject
 90
      499
 91
      503
 93
      113
310
904313A31364000000000000304000
  0
ACAD_PROXY_OBJECT
  5
4F
102
{ACAD_REACTORS
330
47
102
}
330
47
100
AcDbProxyObject
 90
      499
 91
      503
 93
      113
310
904313A32304000000000000344000
  0
ACAD_PROXY_OBJECT
  5
50
102
{ACAD_REACTORS
330
47
102
}
330
47
100
AcDbProxyObject
 90
      499
 91
      503
 93
      113
310
904313A333040000000000003E4000
  0
ACAD_PROXY_OBJECT
  5
51
102
{ACAD_REACTORS
330
47
102
}
330
47
100
AcDbProxyObject
 90
      499
 91
      503
 93
      113
310
904313A34304000000000000444000
  0
ACAD_PROXY_OBJECT
  5
52
102
{ACAD_REACTORS
330
47
102
}
330
47
100
AcDbProxyObject
 90
      499
 91
      503
 93
      113
310
904313A35304000000000000494000
  0
ACAD_PROXY_OBJECT
  5
53
102
{ACAD_REACTORS
330
47
102
}
330
47
100
AcDbProxyObject
 90
      499
 91
      503
 93
      121
310
905313A3130304000000000000594000
  0
ACAD_PROXY_OBJECT
  5
54
102
{ACAD_REACTORS
330
47
102
}
330
47
100
AcDbProxyObject
 90
      499
 91
      503
 93
      105
310
903323A310000000000000010100
  0
ACAD_PROXY_OBJECT
  5
55
102
{ACAD_REACTORS
330
47
102
}
330
47
100
AcDbProxyObject
 90
      499
 91
      503
 93
      105
310
903343A310000000000000410100
  0
ACAD_PROXY_OBJECT
  5
56
102
{ACAD_REACTORS
330
47
102
}
330
47
100
AcDbProxyObject
 90
      499
 91
      503
 93
      105
310
903383A310000000000000810100
  0
ACAD_PROXY_OBJECT
  5
57
102
{ACAD_REACTORS
330
47
102
}
330
47
100
AcDbProxyObject
 90
      499
 91
      503
 93
      113
310
90431303A310000000000000910100
  0
ACAD_PROXY_OBJECT
  5
58
102
{ACAD_REACTORS
330
47
102
}
330
47
100
AcDbProxyObject
 90
      499
 91
      503
 93
      121
310
9053130303A310000000000001650100
  0
ACAD_PROXY_OBJECT
  5
59
102
{ACAD_REACTORS
330
47
102
}
330
47
100
AcDbProxyObject
 90
      499
 91
      503
 93
      257
310
90E312F31323822203D2031272D3022000000000000200FC000000000000284000
  0
ACAD_PROXY_OBJECT
  5
5A
102
{ACAD_REACTORS
330
47
102
}
330
47
100
AcDbProxyObject
 90
      499
 91
      503
 93
      249
310
90D312F363422203D2031272D3022000000000000240FC000000000000284000
  0
ACAD_PROXY_OBJECT
  5
5B
102
{ACAD_REACTORS
330
47
102
}
330
47
100
AcDbProxyObject
 90
      499
 91
      503
 93
      249
310
90D312F333222203D2031272D3022000000000000280FC000000000000284000
  0
ACAD_PROXY_OBJECT
  5
5C
102
{ACAD_REACTORS
330
47
102
}
330
47
100
AcDbProxyObject
 90
      499
 91
      503
 93
      249
310
90D312F313622203D2031272D30220000000000002C0FC000000000000284000
  0
ACAD_PROXY_OBJECT
  5
5D
102
{ACAD_REACTORS
330
47
102
}
330
47
100
AcDbProxyObject
 90
      499
 91
      503
 93
      249
310
90D332F333222203D2031272D30220000000000002E0FC000000000000284000
  0
ACAD_PROXY_OBJECT
  5
5E
102
{ACAD_REACTORS
330
47
102
}
330
47
100
AcDbProxyObject
 90
      499
 91
      503
 93
      241
310
90C312F3822203D2031272D3022000000000000300FC000000000000284000
  0
ACAD_PROXY_OBJECT
  5
5F
102
{ACAD_REACTORS
330
47
102
}
330
47
100
AcDbProxyObject
 90
      499
 91
      503
 93
      249
310
90D332F313622203D2031272D3022000000000000320FC000000000000284000
  0
ACAD_PROXY_OBJECT
  5
60
102
{ACAD_REACTORS
330
47
102
}
330
47
100
AcDbProxyObject
 90
      499
 91
      503
 93
      241
310
90C312F3422203D2031272D3022000000000000340FC000000000000284000
  0
ACAD_PROXY_OBJECT
  5
61
102
{ACAD_REACTORS
330
47
102
}
330
47
100
AcDbProxyObject
 90
      499
 91
      503
 93
      241
310
90C332F3822203D2031272D3022000000000000360FC000000000000284000
  0
ACAD_PROXY_OBJECT
  5
62
102
{ACAD_REACTORS
330
47
102
}
330
47
100
AcDbProxyObject
 90
      499
 91
      503
 93
      241
310
90C312F3222203D2031272D3022000000000000380FC000000000000284000
  0
ACAD_PROXY_OBJECT
  5
63
102
{ACAD_REACTORS
330
47
102
}
330
47
100
AcDbProxyObject
 90
      499
 91
      503
 93
      241
310
90C332F3422203D2031272D30220000000000003A0FC000000000000284000
  0
ACAD_PROXY_OBJECT
  5
64
102
{ACAD_REACTORS
330
47
102
}
330
47
100
AcDbProxyObject
 90
      499
 91
      503
 93
      161
310
90A3122203D2031272D30224000000000000284000
  0
ACAD_PROXY_OBJECT
  5
65
102
{ACAD_REACTORS
330
47
102
}
330
47
100
AcDbProxyObject
 90
      499
 91
      503
 93
      257
310
90E312D312F3222203D2031272D30220000000000003E0FC000000000000284000
  0
ACAD_PROXY_OBJECT
  5
66
102
{ACAD_REACTORS
330
47
102
}
330
47
100
AcDbProxyObject
 90
      499
 91
      503
 93
      225
310
90A3322203D2031272D302200000000000002100000000000000284000
  0
ACAD_PROXY_OBJECT
  5
67
102
{ACAD_REACTORS
330
47
102
}
330
47
100
AcDbProxyObject
 90
      499
 91
      503
 93
      225
310
90A3622203D2031272D302200000000000006100000000000000284000
  0
ACAD_PROXY_OBJECT
  5
68
102
{ACAD_REACTORS
330
47
102
}
330
47
100
AcDbProxyObject
 90
      499
 91
      503
 93
      249
310
90D31272D3022203D2031272D30220000000000000A100000000000000284000
  0
ACAD_PROXY_OBJECT
  5
2F
102
{ACAD_REACTORS
330
2A
102
}
330
2A
100
AcDbProxyObject
 90
      499
 91
      501
 93
      436
310
42CC9915DA5C99599C985B595049028333333333333E33F0000000000000F90107901411070040501600405405064090741402480A0340
1001
ACAD
1000
AcDbSavedByObjectVersion
1070
     0
  0
ACAD_PROXY_OBJECT
  5
32
102
{ACAD_REACTORS
330
2A
102
}
330
2A
100
AcDbProxyObject
 90
      499
 91
      501
 93
      388
310
4150985CDA58D07406404333333333333E33F0000000000000F90107A41107004050150841D405064090741402480A0350
1001
ACAD
1000
AcDbSavedByObjectVersion
1070
     0
  0
ACAD_PROXY_OBJECT
  5
36
102
{ACAD_REACTORS
330
2A
102
}
330
2A
100
AcDbProxyObject
 90
      499
 91
      501
 93
      428
310
42109C9A59DA1D195B90C409028333333333333E33F0000000000000F9010790141107004050150841D405064090741402480A029950
1001
ACAD
1000
AcDbSavedByObjectVersion
1070
     0
  0
ACAD_PROXY_OBJECT
  5
3A
102
{ACAD_REACTORS
330
2A
102
}
330
2A
100
AcDbProxyObject
 90
      499
 91
      501
 93
      452
310
42D0DBDB1BDC90DA185B99D95104090240C333333333333E33F0000000000000F90108901411070040501508421405064090741402480A0350
1001
ACAD
1000
AcDbSavedByObjectVersion
1070
     0
  0
ACAD_PROXY_OBJECT
  5
34
102
{ACAD_REACTORS
330
2A
102
}
330
2A
100
AcDbProxyObject
 90
      499
 91
      501
 93
      500
310
4290DBDB98D95C1D1D585B10940D028333333333333E33F0000000000000F90107902409070040501000000000018199010841D405064090740C02480A0340
1001
ACAD
1000
AcDbSavedByObjectVersion
1070
     0
  0
ACAD_PROXY_OBJECT
  5
35
102
{ACAD_REACTORS
330
2A
102
}
330
2A
100
AcDbProxyObject
 90
      499
 91
      501
 93
      412
310
40D11A5B50B409028333333333333E33F0000000000000F9010790141107004050150841D405064090741402480A02677FFFFFD0
1001
ACAD
1000
AcDbSavedByObjectVersion
1070
     0
  0
ACAD_PROXY_OBJECT
  5
3D
102
{ACAD_REACTORS
330
2A
102
}
330
2A
100
AcDbProxyObject
 90
      499
 91
      501
 93
      452
310
43115919D950DBDB1BDC93D999916409028333333333333E33F0000000000000F9010790141107004050150841D405064090741402480A0350
1001
ACAD
1000
AcDbSavedByObjectVersion
1070
     0
  0
ACAD_PROXY_OBJECT
  5
39
102
{ACAD_REACTORS
330
2A
102
}
330
2A
100
AcDbProxyObject
 90
      499
 91
      501
 93
      444
310
42D19858D95C185D1D195C9B90F409028333333333333E33F0000000000000F9010790141107004050150841D405064090741402480A0350
1001
ACAD
1000
AcDbSavedByObjectVersion
1070
     0
  0
ACAD_PROXY_OBJECT
  5
2B
102
{ACAD_REACTORS
330
2A
102
}
330
2A
100
AcDbProxyObject
 90
      499
 91
      501
 93
      380
310
41119B185D240901404333333333333E33F0000000000000F9010740A907004050150841D405064090741402480A1B50
1001
ACAD
1000
AcDbSavedByObjectVersion
1070
     0
  0
ACAD_PROXY_OBJECT
  5
2C
102
{ACAD_REACTORS
330
2A
102
}
330
2A
100
AcDbProxyObject
 90
      499
 91
      501
 93
      468
310
43519B185D15DA5D1A115919D95CD0140901404333333333333E33F0000000000000F90107409019070040501600405405064090741402480A1B50
1001
ACAD
1000
AcDbSavedByObjectVersion
1070
     0
  0
ACAD_PROXY_OBJECT
  5
2D
102
{ACAD_REACTORS
330
2A
102
}
330
2A
100
AcDbProxyObject
 90
      499
 91
      501
 93
      404
310
41D1DBDD5C985D5910240902404333333333333E33F0000000000000F9010740A9070040501641D405064090741402480A1B50
1001
ACAD
1000
AcDbSavedByObjectVersion
1070
     0
  0
ACAD_PROXY_OBJECT
  5
2E
102
{ACAD_REACTORS
330
2A
102
}
330
2A
100
AcDbProxyObject
 90
      499
 91
      501
 93
      492
310
4411DBDD5C985D5915DA5D1A115919D95CD0340902404333333333333E33F0000000000000F90107409019070040501600405405064090741402480A1B50
1001
ACAD
1000
AcDbSavedByObjectVersion
1070
     0
  0
ACAD_PROXY_OBJECT
  5
31
102
{ACAD_REACTORS
330
2A
102
}
330
2A
100
AcDbProxyObject
 90
      499
 91
      501
 93
      476
310
41921A5919195B90640502408333333333333E33F0000000000000F901079024090700405020000000000001110200405405064090740C02480A0340
1001
ACAD
1000
AcDbSavedByObjectVersion
1070
     0
  0
ACAD_PROXY_OBJECT
  5
3B
102
{ACAD_REACTORS
330
2A
102
}
330
2A
100
AcDbProxyObject
 90
      499
 91
      501
 93
      428
310
42529A5D1D195C93D999914409028333333333333E33F0000000000000F9010790141107004050150A41D405064090741402480A0350
1001
ACAD
1000
AcDbSavedByObjectVersion
1070
     0
  0
ACAD_PROXY_OBJECT
  5
38
102
{ACAD_REACTORS
330
2A
102
}
330
2A
100
AcDbProxyObject
 90
      499
 91
      501
 93
      444
310
42D31A5B995C185D1D195C9B90E409028333333333333E33F0000000000000F9010790141107004050750841D405064090741402483A0350
1001
ACAD
1000
AcDbSavedByObjectVersion
1070
     0
  0
ACAD_PROXY_OBJECT
  5
3C
102
{ACAD_REACTORS
330
2A
102
}
330
2A
100
AcDbProxyObject
 90
      499
 91
      501
 93
      444
310
42D3DD995C9A185B99D3D999915409028333333333333E33F0000000000000F9010790141107004050150941D405064090741402480A0350
1001
ACAD
1000
AcDbSavedByObjectVersion
1070
     0
  0
ACAD_PROXY_OBJECT
  5
33
102
{ACAD_REACTORS
330
2A
102
}
330
2A
100
AcDbProxyObject
 90
      499
 91
      501
 93
      428
310
425499585B1A5CDD1A58D08409038333333333333E33F0000000000000F9010740A907004050150800405405064090740C02480A1B40
1001
ACAD
1000
AcDbSavedByObjectVersion
1070
     0
  0
ACAD_PROXY_OBJECT
  5
42
102
{ACAD_REACTORS
330
2A
102
}
330
2A
100
AcDbProxyObject
 90
      499
 91
      501
 93
      420
310
4194DA1859195911B40902404333333333333E33F0000000000000F9010740A41107004050150800405405064090840C02480A0B40
1001
ACAD
1000
AcDbSavedByObjectVersion
1070
     0
  0
ACAD_PROXY_OBJECT
  5
41
102
{ACAD_REACTORS
330
2A
102
}
330
2A
100
AcDbProxyObject
 90
      499
 91
      501
 93
      516
310
4454DA18591959081DDA5D1A08195919D95CD1A40902404333333333333E33F0000000000000F901074090142907004050250800405405064090740C02480A0B40
1001
ACAD
1000
AcDbSavedByObjectVersion
1070
     0
  0
ACAD_PROXY_OBJECT
  5
3E
102
{ACAD_REACTORS
330
2A
102
}
330
2A
100
AcDbProxyObject
 90
      499
 91
      501
 93
      532
310
4394DA1859195CC81BD98811DC985E5174090240C333333333333E33F0000000000000F901079024090741D01000000000000111010841D405064090740C02480A0340
1001
ACAD
1000
AcDbSavedByObjectVersion
1070
     0
  0
ACAD_PROXY_OBJECT
  5
3F
102
{ACAD_REACTORS
330
2A
102
}
330
2A
100
AcDbProxyObject
 90
      499
 91
      501
 93
      476
310
41D4DAD95D18DA1E51840502408333333333333E33F0000000000000F901079024090741D01000000000000111010B41D405064090741802480A0340
1001
ACAD
1000
AcDbSavedByObjectVersion
1070
     0
  0
ACAD_PROXY_OBJECT
  5
37
102
{ACAD_REACTORS
330
2A
102
}
330
2A
100
AcDbProxyObject
 90
      499
 91
      501
 93
      412
310
41D51A1A58DAD95B90D409028333333333333E33F0000000000000F9010790141107004050150C41D405064090741402480A0350
1001
ACAD
1000
AcDbSavedByObjectVersion
1070
     0
  0
ACAD_PROXY_OBJECT
  5
30
102
{ACAD_REACTORS
330
2A
102
}
330
2A
100
AcDbProxyObject
 90
      499
 91
      501
 93
      420
310
4255DA5C99599C985B595059028333333333333E33F0000000000000F90107901411070040501600405405064090740C02480A0340
1001
ACAD
1000
AcDbSavedByObjectVersion
1070
     0
  0
ACAD_PROXY_OBJECT
  5
40
102
{ACAD_REACTORS
330
2A
102
}
330
2A
100
AcDbProxyObject
 90
      499
 91
      501
 93
      404
310
41560B54985E51940902404000000000000E03F0000000000000F9010740501907004050150841D405064090740C02480A1B40
1001
ACAD
1000
AcDbSavedByObjectVersion
1070
     0
  0
XRECORD
  5
3BB
102
{ACAD_REACTORS
330
3B1
102
}
330
3B1
100
AcDbXrecord
340
0
  0
XRECORD
  5
3BA
102
{ACAD_REACTORS
330
3B1
102
}
330
3B1
100
AcDbXrecord
 90
        0
  0
XRECORD
  5
3D1
102
{ACAD_REACTORS
330
3B1
102
}
330
3B1
100
AcDbXrecord
1000
DSTYLE
1002
{
1070
   179
 70
     1
1070
   143
 40
0.03937
1070
   285
 70
     8
1070
   176
 70
     7
1070
   177
 70
     7
1070
   178
 70
     7
1070
   371
 70
    13
1070
   372
 70
    13
1070
   340
340
72
1070
   140
 40
3.5
1070
   288
 70
     1
1002
}
  0
XRECORD
  5
3BC
102
{ACAD_REACTORS
330
3B1
102
}
330
3B1
100
AcDbXrecord
  1
{31707974-e138-7573-f239-75777261b179}
  0
XRECORD
  5
3B4
102
{ACAD_REACTORS
330
3B1
102
}
330
3B1
100
AcDbXrecord
  1

  0
XRECORD
  5
3B9
102
{ACAD_REACTORS
330
3B1
102
}
330
3B1
100
AcDbXrecord
 90
        4
  0
XRECORD
  5
3B6
102
{ACAD_REACTORS
330
3B1
102
}
330
3B1
100
AcDbXrecord
340
1A
  0
XRECORD
  5
3B8
102
{ACAD_REACTORS
330
3B1
102
}
330
3B1
100
AcDbXrecord
 90
    10269
  0
XRECORD
  5
3B7
102
{ACAD_REACTORS
330
3B1
102
}
330
3B1
100
AcDbXrecord
340
19
  0
XRECORD
  5
3BE
102
{ACAD_REACTORS
330
3B1
102
}
330
3B1
100
AcDbXrecord
 40
0.0
  0
XRECORD
  5
3C1
102
{ACAD_REACTORS
330
3B1
102
}
330
3B1
100
AcDbXrecord
340
0
  0
XRECORD
  5
3C7
102
{ACAD_REACTORS
330
3B1
102
}
330
3B1
100
AcDbXrecord
 10
0.0
 20
0.0
 30
0.0
  0
XRECORD
  5
3C3
102
{ACAD_REACTORS
330
3B1
102
}
330
3B1
100
AcDbXrecord
 10
0.0
 20
0.0
 30
0.0
  0
XRECORD
  5
3C6
102
{ACAD_REACTORS
330
3B1
102
}
330
3B1
100
AcDbXrecord
 10
0.0
 20
0.0
 30
0.0
  0
XRECORD
  5
3C4
102
{ACAD_REACTORS
330
3B1
102
}
330
3B1
100
AcDbXrecord
 10
0.0
 20
0.0
 30
0.0
  0
XRECORD
  5
3C5
102
{ACAD_REACTORS
330
3B1
102
}
330
3B1
100
AcDbXrecord
 10
0.0
 20
0.0
 30
0.0
  0
XRECORD
  5
3C2
102
{ACAD_REACTORS
330
3B1
102
}
330
3B1
100
AcDbXrecord
 10
0.0
 20
0.0
 30
0.0
  0
XRECORD
  5
3BF
102
{ACAD_REACTORS
330
3B1
102
}
330
3B1
100
AcDbXrecord
340
0
  0
XRECORD
  5
3C0
102
{ACAD_REACTORS
330
3B1
102
}
330
3B1
100
AcDbXrecord
 70
     0
  0
XRECORD
  5
3B5
102
{ACAD_REACTORS
330
3B1
102
}
330
3B1
100
AcDbXrecord
  1

  0
XRECORD
  5
3B2
102
{ACAD_REACTORS
330
3B1
102
}
330
3B1
100
AcDbXrecord
 90
        1
  0
XRECORD
  5
3B3
102
{ACAD_REACTORS
330
3B1
102
}
330
3B1
100
AcDbXrecord
 90
       70
  0
XRECORD
  5
3CA
102
{ACAD_REACTORS
330
3B1
102
}
330
3B1
100
AcDbXrecord
340
0
  0
XRECORD
  5
3D0
102
{ACAD_REACTORS
330
3B1
102
}
330
3B1
100
AcDbXrecord
 10
0.0
 20
0.0
 30
0.0
  0
XRECORD
  5
3CC
102
{ACAD_REACTORS
330
3B1
102
}
330
3B1
100
AcDbXrecord
 10
0.0
 20
0.0
 30
0.0
  0
XRECORD
  5
3CF
102
{ACAD_REACTORS
330
3B1
102
}
330
3B1
100
AcDbXrecord
 10
0.0
 20
0.0
 30
0.0
  0
XRECORD
  5
3CD
102
{ACAD_REACTORS
330
3B1
102
}
330
3B1
100
AcDbXrecord
 10
0.0
 20
0.0
 30
0.0
  0
XRECORD
  5
3CE
102
{ACAD_REACTORS
330
3B1
102
}
330
3B1
100
AcDbXrecord
 10
0.0
 20
0.0
 30
0.0
  0
XRECORD
  5
3CB
102
{ACAD_REACTORS
330
3B1
102
}
330
3B1
100
AcDbXrecord
 10
0.0
 20
0.0
 30
0.0
  0
XRECORD
  5
3C8
102
{ACAD_REACTORS
330
3B1
102
}
330
3B1
100
AcDbXrecord
340
0
  0
XRECORD
  5
3C9
102
{ACAD_REACTORS
330
3B1
102
}
330
3B1
100
AcDbXrecord
 70
     0
  0
XRECORD
  5
3BD
102
{ACAD_REACTORS
330
3B1
102
}
330
3B1
100
AcDbXrecord
  1
{FAEB1C32-E019-11D5-929B-00C0DF256EC4}
  0
DICTIONARYVAR
  5
3DE
102
{ACAD_REACTORS
330
6E
102
}
330
6E
100
DictionaryVariables
280
     0
  1
1:1
  0
DICTIONARYVAR
  5
3D8
102
{ACAD_REACTORS
330
6E
102
}
330
6E
100
DictionaryVariables
280
     0
  1
3.500000
  0
DICTIONARYVAR
  5
3D9
102
{ACAD_REACTORS
330
6E
102
}
330
6E
100
DictionaryVariables
280
     0
  1
MM.LIN
  0
DICTIONARYVAR
  5
3D3
102
{ACAD_REACTORS
330
6E
102
}
330
6E
100
DictionaryVariables
280
     0
  1
Standard
  0
DICTIONARYVAR
  5
3D2
102
{ACAD_REACTORS
330
6E
102
}
330
6E
100
DictionaryVariables
280
     0
  1
Onshape-Standard
  0
DICTIONARYVAR
  5
3DA
102
{ACAD_REACTORS
330
6E
102
}
330
6E
100
DictionaryVariables
280
     0
  1
2
  0
DICTIONARYVAR
  5
3DB
102
{ACAD_REACTORS
330
6E
102
}
330
6E
100
DictionaryVariables
280
     0
  1
1
  0
DICTIONARYVAR
  5
3DF
102
{ACAD_REACTORS
330
6E
102
}
330
6E
100
DictionaryVariables
280
     0
  1
1
  0
DICTIONARYVAR
  5
6F
102
{ACAD_REACTORS
330
6E
102
}
330
6E
100
DictionaryVariables
280
     0
  1
0
  0
DICTIONARYVAR
  5
3D5
102
{ACAD_REACTORS
330
6E
102
}
330
6E
100
DictionaryVariables
280
     0
  1
80.000000
  0
DICTIONARYVAR
  5
3D4
102
{ACAD_REACTORS
330
6E
102
}
330
6E
100
DictionaryVariables
280
     0
  1
5.000000
  0
XRECORD
  5
363
102
{ACAD_REACTORS
330
362
102
}
330
362
100
AcDbXrecord
 70
     4
  0
XRECORD
  5
366
102
{ACAD_REACTORS
330
362
102
}
330
362
100
AcDbXrecord
 90
        0
  0
ACAD_PROXY_OBJECT
  5
367
102
{ACAD_REACTORS
330
362
102
}
330
362
100
AcDbProxyObject
 90
      499
 91
      508
 93
       34
310
40C8804040
  0
XRECORD
  5
365
102
{ACAD_REACTORS
330
362
102
}
330
362
100
AcDbXrecord
 90
        0
  0
XRECORD
  5
364
102
{ACAD_REACTORS
330
362
102
}
330
362
100
AcDbXrecord
 90
        1
  0
DICTIONARY
  5
3E2
330
45
100
AcDbDictionary
280
     1
  3
ACAD_XREC_ROUNDTRIP
360
3E3
  0
DICTIONARY
  5
3E0
330
44
100
AcDbDictionary
280
     1
  3
ACAD_XREC_ROUNDTRIP
360
3E1
  0
DICTIONARY
  5
3E4
330
46
100
AcDbDictionary
280
     1
  3
ACAD_XREC_ROUNDTRIP
360
3E5
  0
XRECORD
  5
3E3
102
{ACAD_REACTORS
330
3E2
102
}
330
3E2
100
AcDbXrecord
102
MATERIAL
148
0.0
149
0.0
149
0.0
 93
        0
 94
      127
282
     0
 72
     1
 77
     1
171
     1
175
     1
179
     1
273
     0
  0
XRECORD
  5
3E1
102
{ACAD_REACTORS
330
3E0
102
}
330
3E0
100
AcDbXrecord
102
MATERIAL
148
0.0
149
0.0
149
0.0
 93
        0
 94
      127
282
     0
 72
     1
 77
     1
171
     1
175
     1
179
     1
273
     0
  0
XRECORD
  5
3E5
102
{ACAD_REACTORS
330
3E4
102
}
330
3E4
100
AcDbXrecord
102
MATERIAL
148
0.0
149
0.0
149
0.0
 93
        0
 94
      127
282
     0
 72
     1
 77
     1
171
     1
175
     1
179
     1
273
     0
  0
ENDSEC
  0
EOF
